´╗┐ d | dio | holy diver tab online player | |


  
#----------------------------------PLEASE NOTE---------------------------------#
#This file is the author's own work and represents their interpretation of the #
#song. You may only use this file for private study, scholarship, or research. #
#------------------------------------------------------------------------------##
Date: Tue, 19 Dec 1995 20:14:26 -0600
From: rjdio@ionet.net (Patrick Harnish or Kelly Bennett)
Subject: More Dio tab

Holy Diver
Words and Music by Ronnie James Dio
Performed by Dio
Tabbed by rjdio@ionet.net

Main Riff                                                                               
E-|---------------------------------------------------------------------------|
B-|---------------------------------------------------------------------------|
G-|---------------------------------------------------------------------------|
D-|---------------------------------------------------------------------------|
A-|-7--7-7-7--7-7-7---9-10--7--7-7-7--7-9-10--5-------------------------------|
E-|-5--5-5-5--5-5-5---7-8---5--5-5-5--5-7-8---3-------------------------------|
                                                                               
                                                                               
E-|---------------------------------------------------------------------------|
B-|---------------------------------------------------------------------------|
G-|---------------------------------------------------------------------------|
D-|---------------------------------------------------------------------------|
A-|-7--7-7-7--7-7-7---9-10--7-5-3---------------------------------------------|
E-|-5--5-5-5--5-5-5---7-8---5-3-1---------------------------------------------|

"Nightmare, electric chair
 You might not get to Heaven
 Bad Boy, shout for joy
 Wack him till' he cries"RJD                                                                               
                                                                               

--=====================_819429204==_
Content-Type: text/plain; charset="us-ascii"


--=====================_819429204==_--