d | danzig | girl tab online player | |


  
#----------------------------------PLEASE NOTE---------------------------------#
#This file is the author's own work and represents their interpretation of the #
#song. You may only use this file for private study, scholarship, or research. #
#------------------------------------------------------------------------------##
                                   GIRL

                                by Danzig

                           from Danzig II- Lucifuge

                            tabbed by Tom Mallon



Notation

        ^ = bend half step

       ^r = bend full step and release

      /\/ = vibrato



INTRO



E |---------------------------------------------------------------------|

B |---------------------------------------------------------------------|

G |.-------5----7---7----------5----7---7------------------5---7---7---.| 2X

D |.--2----5----7---5-----2----5----7---5-----2-------2----5---7---5---.|

A |---2----3----5---------2----3----5---------2-------2----3---5--------|

E |---0-------------------0-------------------0---3^--0-----------------|



E |------------------|

B |------------------|

G |---5----7----7----|

D |---5----7----5----|

A |---3----5---------|

E |------------------|



VERSE



E |-------------------------|-------------------------------------------|

B |-------------------------|-------------------------------------------|

G |.-------5-------7-------.|-------------------------------------------|

D |.--2----5-------7-------.|--2--------2-------------------------------|

A |---2----3---0---5--------|--2--------2-------------------------------|

E |---0-----------------3^--|--0---3^---0-------------------------------|



PRE-CHORUS

    PM- - - - - - - - - -|

E |-------------------------------------------|

B |-------------------------------------------|

G |---5--5--5--5--5--5--5--5--5--5--5--5--5---|

D |---5--5--5--5--5--5--5--5--5--5--5--5--5---|

A |---3--3--3--3--3--3--3--3--3--3--3--3--3---|

E |-------------------------------------------|



CHORUS

                    PM    PM

E |---------------------------------------------------------------------|

B |---------------------------------------------------------------------|

G |------5---7---7------7-----7--------5---7---7------------------------|

D |--2---5---7---5------7-----7----2---5---7---5---2---5---2------------|

A |--2---3---5-------0--5--0--5----2---3---5-------2---5---2------------|

E |--0-----------------------------0---------------0---3---0------------|



BRIDGE/SOLO



E |-------------------------------------------------------|

B |-------------------------------------------------------|

G |----------------5----7--------5---7---7^r---5----------|

D |-------------------------------------------------7-----|

A |-------------------------------------------------------|

E |----5---5---5-------------5----------------------------|

                                 /\/

E |-------------------------------------------------------|

B |-------------------------------------------------------|

G |----------------5----7---------------------------------|

D |--------------------------0---7----0--6--5--3--0-------|

A |-------------------------------------------------------|

E |----5---5---5------------------------------------------|



E |-------------------------------------------------------|

B |-------------------------------------------------------|

G |----------------5----7--------5---7---7^r----5---------|

D |--------------------------------------------------7----|

A |-------------------------------------------------------|

E |----5---5---5-------------5----------------------------|



E |-------------------------------------------------------|

B |-------------------------------------------------------|

G |----------------5----7-------??????????????????????----|

D |-----------------------------??????????????????????----|

A |-------------------------------------------------------|

E |----5---5---5------------------------------------------|



E |-------------------------------------------------------|

B |-------------------------------------------------------|

G |----------------7----9--------7---9---9^r----7---------|

D |---------------------------------------------------9---|

A |-------------------------------------------------------|

E |----7---7---7------------7-----------------------------|



E |-------------------------------------------------------|

B |-------------------------------------------------------|

G |----------------7----9-------???????????????????????---|

D |-----------------------------???????????????????????---|

A |-------------------------------------------------------|

E |----7---7---7------------7-----------------------------|



Songflow:



   INTRO, VERSE, CHORUS, VERSE, CHORUS, BRIDGE, CHORUS, BRIDGE, CHORUS



I can't figure out those bits of the solo, so if anyone can help me out 

there, I'd appreciate it.