c | coxon graham | freakin out tab online player | |


  
#-----------------------------PLEASE NOTE-------------------------------------#
#This OLGA file is the author's own work and represents their interpretation  #
#of the song. You may only use this file for private study, scholarship, or   #
#research. Remember to view this file in Courier, or some other monospaced    #
#font. See http://www.olga.net/faq/ for more information.                     #
#-----------------------------------------------------------------------------#

Date: Thu, 10 Jun 2004 20:38:32 +0100
From: Simon 
Subject: c/coxon_graham/freakin_out.tab

 
Graham Coxon - Freakin' Out (from Happiness in Magazines)
Chords and tab transcribed by Simon Lee ( www.blur.cwc.net)
 

Intro
 
  E5            Emaj7 A                             B     E5
|---------------------------------------------------------------------|
|---------------------------------------------------------------------|
|-9-9-9-9-9-9-9-8-8-8-6-6-6-6-6-6-6-6-6-6-6-6-6-6-6-8-8-8-9-9-9-9-9-9-|
|-9-9-9-9-9-9-9-9-9-9-7-7-7-7-7-7-7-7-7-7-7-7-7-7-7-9-9-9-9-9-9-9-9-9-|
|-7-7-7-7-7-7-7-7-7-7-7-7-7-7-7-7-7-7-7-7-7-7-7-7-7-9-9-9-7-7-7-7-7-7-| x
3
|---------------------5-5-5-5-5-5-5-5-5-5-5-5-5-5-5-7-7-7-------------|
 

Verse
 
  E             Emaj7 A                             B     E
|---------------------------------------------------------------------|
|---------------------------------------------------------------------|
|-9-9-9-9-9-9-9-8-8-8-6-6-6-6-6-6-6-6-6-6-6-6-6-6-6-8-8-8-9-9-9-9-9-9-|
|-9-9-9-9-9-9-9-9-9-9-7-7-7-7-7-7-7-7-7-7-7-7-7-7-7-9-9-9-9-9-9-9-9-9-|
|-7-7-7-7-7-7-7-7-7-7-7-7-7-7-7-7-7-7-7-7-7-7-7-7-7-9-9-9-7-7-7-7-7-7-| x
4
|---------------------5-5-5-5-5-5-5-5-5-5-5-5-5-5-5-7-7-7-------------|
 

Bridge
 
E5 B C D B E5
 

Chorus
 
E5 A B G C D E5
 
Enf of chorus riff
 
|-----------------------------------------------|
|-----------------------------------------------|
|-2p0-----2p0-----2p0---------------------------|
|-----2p0-----2p0-----2p0----2------------------|
|----------------------------2---2-4-4-5-5-4----|
|-------------------------3^-0---0-0-0-0-0-0----|
 

Solo chords
 
D B E5 x 4
 

---