´╗┐ c | cold | wasted years tab online player | |


  
#-----------------------------PLEASE NOTE-------------------------------------#
#This OLGA file is the author's own work and represents their interpretation  #
#of the song. You may only use this file for private study, scholarship, or   #
#research. Remember to view this file in Courier, or some other monospaced    #
#font. See http://www.olga.net/faq/ for more information.                     #
#-----------------------------------------------------------------------------#

Date: Fri, 21 May 2004 19:44:15 -0500
From: corey-schatz@uiowa.edu
Subject: c/cold/wasted_years.tab


Artist: Cold
Title: Wasted Years 
Album: Year of the Spider
Tablature by:  Corey Schatz
corey-schatz@uiowa.edu


The guitar is capoed on the first fret.
The fret numbers are listed as if no capo were on the guitar.
Rhythm is not precise.  Refer to the album for precision.

Intro / Verses

e|-x-----x--x--------x--x--x----|--x---|-x-----x--x--------x--x--x----|-x---|
B|-x-----x--x--------x--x--x----|--x---|-x-----x--x--------x--x--x----|-x---|
G|-8/10-10-10-10/12-12-12-12/13-|--x---|-8/10-10-10-10/12-12-12-12/13-|-8---|
D|-x-----x--x--------x--x--x----|-11---|-x-----x--x--------x--x--x----|-8---|
A|-6/8---8--8--8/10-10-10-10/11-|-11---|-6/8---8--8--8/10-10-10-10/11-|-6---|
E|-1-----1--1--1-----1--1--1----|--9---|-1-----1--1--1-----1--1--1----|-x---|


Chorus (it sounds picked through, but one can fake it by playing these chords)
Again, the fret numbers are as if no capo on the guitar.
Chords names listed as capoed.

  Asus2  C     G     D    Asus2  C     G     D
e|-1---|-1---|-4---|-3---|-1---|-1---|-4---|-3---|
B|-1---|-2---|-4---|-4---|-1---|-2---|-4---|-4---|
G|-3---|-1---|-1---|-3---|-3---|-1---|-1---|-3---|
D|-3---|-3---|-1---|-1---|-3---|-3---|-1---|-1---|
A|-1---|-4---|-3---|-1---|-1---|-4---|-3---|-1---|
E|-1---|-1---|-4---|-3---|-1---|-1---|-4---|-3---|


Solo
The fret numbers are still as if no capo on the guitar.

 e |-----------------------|---------------
 B |-----------------------|-9-9--8--------
 G |-3/5-5-5-5/6-6-6-6/8-8-|-----8--8-8-8\-
 D |-----------------------|---------------
 A |-----------------------|---------------
 E |-----------------------|---------------

 e |-----------------------|-----
 B |-----------------------|-----
 G |-3/5-5-5-5/6-6-6-6/8-8-|8/10-
 D |-----------------------|-----
 A |-----------------------|-----
 E |-----------------------|-----

 e |-------------------|--------------------
 B |-------------------|-----------9p8-9p8--
 G |-8/10-10-10-10-10-8|8/10-10-10----8---8-
 D |-------------------|--------------------
 A |-------------------|--------------------
 E |-------------------|--------------------

 e |-------------------|------------------
 B |-------------------|9p8-8--9p8-8--8---
 G |-8/10-10-10-10-10-8|---8--8---8--8--8-
 D |-------------------|------------------
 A |-------------------|------------------
 E |-------------------|------------------