´╗┐ c | cold | suffocate crd online player | |


  
#-----------------------------PLEASE NOTE-------------------------------------#
#This OLGA file is the author's own work and represents their interpretation  #
#of the song. You may only use this file for private study, scholarship, or   #
#research. Remember to view this file in Courier, or some other monospaced    #
#font. See http://www.olga.net/faq/ for more information.                     #
#-----------------------------------------------------------------------------#

Date: Mon, 12 May 2003 18:43:44 -0400
From: l robles 
Subject: c/cold/suffocate.crd

Artist: Cold
Song: Suffocate
Album: Year of the Spider
Tabbed by: HeNrY OniXPiroN (onixpiron@hotmail.com)






tuning Eb Ab Db Gb Bb Eb

verse

F# - A - E - F#


Eb| ---------------------
Bb| ---------------------
Gb| ---------------------
Db| ---4---7---2---4-----
Ab| ---4---7---2---4-----
Eb| ---2---5---0---2-----


chorus

A - E - F#

Eb| ---------------------
Bb| ---------------------
Gb| ---------------------
Db| ------7---2---4-----
Ab| ------7---2---4-----
Eb| ------5---0---2-----

bRIDGE

Cb - B - A

Eb| -----------------
Bb| -----------------
Gb| --6--------------
Db| --6---9----7-----
Ab| --4---9----7-----
Eb| ------7----5-----

_________________________________________________________________