c | cold | strip her down tab online player | |


  
#-----------------------------PLEASE NOTE-------------------------------------#
#This OLGA file is the author's own work and represents their interpretation  #
#of the song. You may only use this file for private study, scholarship, or   #
#research. Remember to view this file in Courier, or some other monospaced    #
#font. See http://www.olga.net/faq/ for more information.                     #
#-----------------------------------------------------------------------------#

Date: Sun, 15 Jun 2003 07:09:50 -0700 (PDT)
From: Kelly Herrmann 
Subject: c/cold/strip_her_down.tab

SONG: Strip Her Down
GROUP: Cold
ALBUM: Cold
Tuning: Standard
h-hammer on
/-slide

This TAB is all my own work^ I learned it by ear off the CD.

Intro (strumming not shown)
e|-----------------|
B|-----------------|
G|-----------------|
D|---------5-4-3-2-|
A|---------5-4-3-2-|
D|-0h1/2/3-3-2-1-0-|

Main Riff (strumming not shown)
e|---------|
B|---------|
G|---------|
D|-5-4-3-2-|
A|-5-4-3-2-|
D|-3-2-1-0-|

Little extra-bit towards the end
e|--------------------------------|
B|-12-10-9-10-12-12-10-9-10-10h12-|
G|--------------------------------|
D|--------------------------------|
A|--------------------------------|
E|--------------------------------|

Cont.
e|----------------------------------------|
B|-10-9-10-12-12-10-9-10-9-10-9-10-9-10-9-|
G|----------------------------------------|
D|----------------------------------------|
A|----------------------------------------|
E|----------------------------------------|

If you know any other Cold songs you want tabbed email me at
pyroskh@yahoo.com and I^ll do my best to post it.

________________________________________________________________________________