c | cold | just got wicked crd online player | |


  
#-----------------------------PLEASE NOTE-------------------------------------#
#This OLGA file is the author's own work and represents their interpretation  #
#of the song. You may only use this file for private study, scholarship, or   #
#research. Remember to view this file in Courier, or some other monospaced    #
#font. See http://www.olga.net/faq/ for more information.                     #
#-----------------------------------------------------------------------------#

Date: Sun, 30 Mar 2003 13:43:36 -0800 (PST)
From: Kelly Herrmann 
Subject: c/cold/just_got_wicked.crd


SONG: Just Got Wicked

GROUP: Cold

ALBUM: 13 Ways To Bleed On Stage



Normal Tuning

h-hammer on

p-pull off

Tabbed by: pyroskh

Transcribed by: Mr. Davis

This tab was all done by mr davis who then taught it to me.

Riff 1:

-------------------------------------------------------------------

-------------------------------------------------------------------

--------------12-12-12-12-12-11-11-11-11-11-10-10-10---------------

---10--10----------------------------------------------------------

---10--10----------------------------------------------------------

----8---8----------------------------------------------------------

Variation Riff 1

--------------------------------------------------------

--------------------------------------------------------

--------------10-10-10-10-10h12p10-10-10-10-------------

---10--10-----------------------------------------------

---10--10-----------------------------------------------

----8---8-----------------------------------------------

When the singing starts stop riff and don^t play until ^everything
froze into ice these mother f***ers^^

Cut off on ^just got wicked^ play:

------

------

------

--10--

--10--

---8--

Chorus:

----------------

----------------

----------10-----

----5--8--10-----

----5--8---8-----

----3--6--------



Basically just play around with some different rhythms on:

------

------

------

--10--

--10--

---8--

Riff 3:

-------------------------------------------

-------------------------------------------

---5--5------------------------------------

---5--5------------------------------------

---3--3-----3-3-3---4-4-4---6-6-6-6--------

------------1-1-1---2-2-2---4-4-4-4--------

-End on-

-----

-----

-----

--5--

--5--

--3--

If you know any other cold songs you want tabbed email me at
pyroskh@yahoo.com and ill do my best to post it