c | cold | cure my tragedy tab online player | |


  
#-----------------------------PLEASE NOTE-------------------------------------#
#This OLGA file is the author's own work and represents their interpretation  #
#of the song. You may only use this file for private study, scholarship, or   #
#research. Remember to view this file in Courier, or some other monospaced    #
#font. See http://www.olga.net/faq/ for more information.                     #
#-----------------------------------------------------------------------------#

Date: Thu, 14 Aug 2003 09:56:18 -0500
From: nancy herrmann 
Subject: c/cold/cure_my_tragedy.tab

SONG: Cure My Tragedy (A Letter To God)
BAND: Cold
ALBUM: Year of The Spider
TUNING: Standard

h-hammer on
p-pull off

Intro/Main Riff (Digital Delay)
e|----------8h10p8-------------------|
B|------8-9-----------------11h13p11-|
G|----8------------------------------|
D|-10--------------13-12-13----------|
A|-----------------------------------|
E|-----------------------------------|

Ok, these are played behind that riff...(one measure each)
 Cm Bbm
e|--3---1--|
B|--4---3--|
G|--5---3--|
D|--5---3--|
A|---------|
E|---------|

Chords for the Chorus (strumming not shown)
e|----------|
B|----------|
G|--------8-|
D|-6-5-10-8-|
A|-6-5-10-6-|
E|-4-3-8----|

that is basically it! have fun... sorry it took me awhile to post this
one...

If you know any other Cold songs you want tabbed email me at
pyroskh@yahoo.com and I^ll do my best to post it.