c | cold | anti-love song tab online player | |


  
#-----------------------------PLEASE NOTE-------------------------------------#
#This OLGA file is the author's own work and represents their interpretation  #
#of the song. You may only use this file for private study, scholarship, or   #
#research. Remember to view this file in Courier, or some other monospaced    #
#font. See http://www.olga.net/faq/ for more information.                     #
#-----------------------------------------------------------------------------#

Date: Wed, 7 May 2003 11:08:52 -0700 (PDT)
From: Kelly Herrmann 
Subject: c/cold/anti-love_song.tab


SONG: Anti-Love Song

GROUP: Cold

ALBUM: 13 Ways To Bleed On Stage

Tuning: drop D^ possibly lower(?)

This TAB was all my own work

Bass intro: (sounds like he^s using a pick(?))

G|---------------------------------------------------------|

D|---------------------------------------------------------|

A|---------------------------------------------------------|

D|-0-0-0-0-0-0-0-3-3-3-3-3-3-3-2-2-2-2-2-2-2-5-5-5-5-5-5-5-|

Guitar: (not so sure about this part^ ^well I saw the preacher^^)

e|---------------------------------------------------------|

B|---------------------------------------------------------|

G|---------------------------------------------------------|

D|---3-3-3-2---3-3-3-2---3-2---2-5---0--0-3--3-2--2-5--5-0-|

A|---3-3-3-2---3-3-3-2---3-2---2-5---0--0-3--3-2--2-5--5-0-|

D|---3-3-3-2---3-3-3-2---3-2---2-5---0--0-3--3-2--2-5--5-0-|

Chorus:

e|----------------------------|

B|----------------------------|

G|----------------------------|

D|-0-0-0--3-3-3--2-2-2--5-5-5-|

A|-0-0-0--3-3-3--2-2-2--5-5-5-|

D|-0-0-0--3-3-3--2-2-2--5-5-5-|

^take time away, courage my friends^^ clean, no distortion:

e|------------------------------------------------------|

B|------------------------------------------------------|

G|------------------------------------------------------|

D|--5-5-5-5-5-5--8-8-8-8-8-8--7-7-7-7-7-7--6-6-6-6-6-6--|

A|--3-3-3-3-3-3--6-6-6-6-6-6--5-5-5-5-5-5--4-4-4-4-4-4--|

D|------------------------------------------------------|

If you know any other cold songs you want tabbed email me at
pyroskh@yahoo.com and ill do my best to post