c | cohen leonard | suzanne tab online player | |


  
#-----------------------------PLEASE NOTE-------------------------------------#
#This OLGA file is the author's own work and represents their interpretation  #
#of the song. You may only use this file for private study, scholarship, or   #
#research. Remember to view this file in Courier, or some other monospaced    #
#font. See http://www.olga.net/faq/ for more information.                     #
#-----------------------------------------------------------------------------#

Date: Wed, 18 Jun 2003 23:48:02 +0200
From: pzifff@6sens.com
Subject: c/cohen_leonard/suzanne.tab

Suzanne
Leonard Cohen

I was very surprised when I realized that there was no real tab  for this 
huge folk classic, so I decided to do it myself. This is the album 
version of the song, I transcribed it for 1 (classic) guitar although 
there is also a bass on the album. The rythm is much more complex that 
you could imagine at the first listening because there is a lot of 
changes between 3/4, 2/4 and 4/4 bars. It's difficult to know the moment 
where you have to start singing, so you should try to play the song 
with the album. 
		                        Brice Le Stunff, pzifff@6sens.com


Intro :
     E
   |---------------------------|----------------------------| 
   |--0------------------------|--0-------------------------| 
 3 |------1-------1---2---1----|------1-------1---2---1-----| 
 - |----2---2---2---2---2---2--|----2---2---2---2---2---2---|
 4 |--------------2---2---2----|--------------2---2---2-----|
   |--0-------0----------------|--0-------0-----------------|

   |---------------------------|
   |--0------------------------|
 3 |------1-------1---2---1----|
 - |----2---2---2---2---2---2--|
 4 |--------------2---2---2----|
   |--0-------0----------------|



Verses :
     E
   |--------------------|
   |--0-----------------|
 2 |------1-------1-----|
 - |----2---2---2---2---| 
 4 |-------------(2)----|
   |--0-------0---------|
		"Suzanne takes you down ...
		"And Jesus was a sailor ...
		"Now Suzanne takes you down ...
     E                                                                      
   |-----------------------------------|------------------------------------|
   |-----------------------------------|--0---------------------------------|
 4 |------1-------1---2---1-------1----|------1-------1---2---1-------1-----|
 - |----2---2---2---2---2---2---2---2--|----2---2---2---2---2---2---2---2---|
 4 |--------------2---2---2------------|--------------2---2---2-------------|
   |--0-------0---------------0--------|--0-------0---------------0---------|

     F#m
   |-----------------------------------|------------------------------------|
   |--2--------------------------------|--2---------------------------------|
 4 |------2-------2---4---2-------2----|------2-------2---4---2-------2-----|
 - |----4---4---4---4---4---4---4---4--|----4---4---4---4---4---4---4---4---|
 4 |--------------4---4---4------------|--------------4---4---4-------------|
   |--2-------2---------------2--------|--2-------2---------------2---------|

     E
   |-----------------------------------|------------------------------------|
   |--0--------------------------------|--0---------------------------------|
 4 |------1-------1---2---1-------1----|------1-------1---2---1-------1-----|
 - |----2---2---2---2---2---2---2---2--|----2---2---2---2---2---2---2---2---|
 4 |--------------2---2---2------------|--------------2---2---2-------------|
   |--0-------0---------------0--------|--0-------0---------------0---------|

     G#m				 A
   |-----------------------------------|--0---------------------------------|
   |--4--------------------------------|------2-------2---3---2---0---2-----|
 4 |------4-------4---6---4-------4----|----2---2---2---2---2---2---2---2---|
 - |----6---6---6---6---6---6---6---6--|--------------2--(2)--2--(2)--2-----|
 4 |--------------6---6---6------------|--0-------0-------------------------|
   |--4-------4---------------4--------|------------------------------------|
"And she feeds you ...
"All men will be ...	
"And she shows you ...		
		
     E                                   F#m
   |-----------------------------------|------------------------------------|
   |--0--------------------------------|--2---------------------------------|
 4 |------1-------1---2---1-------1----|------2-------2---4---2-------2-----|
 - |----2---2---2---2---2---2---2---2--|----4---4---4---4---4---4---4---4---|
 4 |--------------2---2---2------------|--------------4---4---4-------------|
   |--0-------0---------------0--------|--2-------2---------------2---------|

     E                                   F#m
   |-----------------------------------|------------------------------------|
   |--0--------------------------------|--2---------------------------------|
 4 |------1-------1---2---1-------1----|------2-------2---4---2-------2-----|
 - |----2---2---2---2---2---2---2---2--|----4---4---4---4---4---4---4---4---|
 4 |--------------2---2---2------------|--------------4---4---4-------------|
   |--0-------0---------------0--------|--2-------2---------------2---------|

     E
   |-----------------------------------| 
   |--0--------------------------------| 
 4 |------1-------1---2---1-------1----| 
 - |----2---2---2---2---2---2---2---2--| 
 4 |--------------2---2---2------------| 
   |--0-------0---------------0--------|  



Choruses :
     E
   |----------------------------|
   |------------------0---------|
 3 |------1---2---1-------1-----|
 - |----2---2---2---2---2---2---|
 4 |------2---2---2-------------|
   |--0---------------0---------|
		    "And you want to travel ...

     G#m				 A
   |-----------------------------------|--0---------------------------------|
   |--4--------------------------------|------2-------2---3---2---0---2-----|
 4 |------4-------4---6---4-------4----|----2---2---2---2---2---2---2---2---|
 - |----6---6---6---6---6---6---6---6--|--------------2--(2)--2--(2)--2-----|
 4 |--------------6---6---6------------|--0-------0-------------------------|
   |--4-------4---------------4--------|------------------------------------|

     E                                   F#m
   |-----------------------------------|------------------------------------|
   |--0--------------------------------|--2---------------------------------|
 4 |------1-------1---2---1-------1----|------2-------2---4---2-------2-----|
 - |----2---2---2---2---2---2---2---2--|----4---4---4---4---4---4---4---4---|
 4 |--------------2---2---2------------|--------------4---4---4-------------|
   |--0-------0---------------0--------|--2-------2---------------2---------|



End of chorus 1 & 2 :
     E
   |---------------------------|----------------------------|
   |--0------------------------|--0-------------------------|
 3 |------1-------1---2---1----|------1-------1---2---1-----|
 - |----2---2---2---2---2---2--|----2---2---2---2---2---2---|
 4 |--------------2---2---2----|--------------2---2---2-----|
   |--0-------0----------------|--0-------0-----------------|
... with your mind."
... with his mind."



Outro :
     E
   |---------------------------|---------------------------|----------------|
   |--0------------------------|--0------------------------|----------------|
 3 |------1-------1---2---1----|------1-------1---2---2----|--1-------------|
 - |----2---2---2---2---2---2--|----2---2---2---2---2---2--|----------------|
 4 |--------------2---2---2----|--------------2---2---2----|----------------|
   |--0-------0----------------|--0-------0----------------|--0-------------|
... with her mind."




Intro
Verse 1
Chorus 1
End of chorus 1
Verse 2
Chorus 2
End of chorus 2
Verse 3
Chorus 3
Outro