c | cocker joe | you can leave your hat on btab online player | |


  
#-----------------------------PLEASE NOTE-------------------------------------#
#This OLGA file is the author's own work and represents their interpretation  #
#of the song. You may only use this file for private study, scholarship, or   #
#research. Remember to view this file in Courier, or some other monospaced    #
#font. See http://www.olga.net/faq/ for more information.                     #
#-----------------------------------------------------------------------------#

Date: Thu, 28 Mar 2002 15:29:32 +0200
From: "Torbjrn Cederlv" 
From: "Jan Bjorklund" 
Subject: c/cocker_joe/you_can_leave_your_hat_on.btab

joe cocker_you can leave your hat on

TablEdited by Jan Bjorklund   
You are welcome to request for tabs!
Fingering and positions as suggested by TablEdit, please use common sense.


TablEdited by Jan Bjorklund
Tuning : E A D G 	Time Signature: 4/4

   |               |               |               |
|------------------------------------------------------------------|
|------------------------------------------------------------------|
|-----------------------------------------------------------1------|
|------------------------------------------------------------------|

   |               |               |               |
|------------------------------------------------------------------|
|-------------1-------------------------1--------------------------|
|---3-------------------------3---------------------------3--------|
|------------------------------------------------------------------|

   |               |               |               |
|------------------------------------------------------------------|
|-------------------1-------------------------1--------------------|
|-1-------3---------------------------3-------------------------3--|
|------------------------------------------------------------------|

   |               |               |               |
|------------------------------------------------------------------|
|-------------------------1-------------------------1--------------|
|-------1-------3---------------------------3----------------------|
|------------------------------------------------------------------|

   |               |               |               |
|------------------------------------------------------------------|
|------------------------------------------------------------------|
|-----3-------1-------3-----------------1--------------------------|
|-------------------------------1---3------------------------------|

   |               |               |               |
|------------------------------------------------------------------|
|------------------------------------------------------------------|
|-------------------------------------3----------------------------|
|------------------------------------------------------------------|

   |               |               |               |
|------------------------------------------------------------------|
|---------2--------------------------------------------------------|
|-------------------------0---------3------------------------------|
|-----------------3------------------------------------------------|

   |               |               |               |
|------------------------------------------------------------------|
|---------------2--------------------------------------------------|
|-------------------------------0---------3------------------------|
|-----------------------3------------------------------------------|

   |               |               |               |
|------------------------------------------------------------------|
|---------------------2--------------------------------------------|
|-------------------------------------0---------3------------------|
|-----------------------------3------------------------------------|

   |               |               |               |
|------------------------------------------------------------------|
|---------------------------2--------------------------------------|
|-------------------------------------------0---------3------------|
|-----------------------------------3------------------------------|

   |               |               |               |
|------------------------------------------------------------------|
|---------------------------------2--------------------------------|
|---------------------------------------------------0-------3------|
|-----------------------------------------3------------------------|

   |               |               |               |
|------------------------------------------------------------------|
|---------------------------------------2--------------------------|
|---------------------------------------------------------0--------|
|-----------------------------------------------3------------------|

   |               |               |               |
|------------------------------------------------------------------|
|---------------------------------------------2--------------------|
|-3-------------------------------------------------------------0--|
|-----------------------------------------------------3------------|

   |               |               |               |
|---------------------------------------------------0--------------|
|-------------------------------------------4----------------------|
|-------3----------------------------------------------------------|
|-----------------------------------------------------------3------|

   |               |               |               |
|------------------------------------------------------------------|
|---------------------------------------------------------2--------|
|-----0-------3----------------------------------------------------|
|------------------------------------------------------------------|

   |               |               |               |
|------------------------------------------------------------------|
|---------------------------------------------------------------2--|
|-----------0-------3----------------------------------------------|
|-3----------------------------------------------------------------|

   |               |               |               |
|------------------------------------------------------------------|
|------------------------------------------------------------------|
|-----------------0-------3----------------------------------------|
|-------3----------------------------------------------------------|

   |               |               |               |
|---------------------------------------------------------12-------|
|-----2------------------------------------------------------------|
|-----------------------0-------19/--------------------------------|
|---------------3--------------------------------------------------|

   |               |               |               |
|---14------15-----------------------------------------------------|
|------------------------------------------------------------------|
|-----------------------------0-------3----------------------------|
|---------------------3--------------------------------------------|

   |               |               |               |
|------------------------------------------------------------------|
|-----------------2------------------------------------------------|
|-----------------------------------0-------3----------------------|
|---------------------------3--------------------------------------|

   |               |               |               |
|------------------------------------------------------------------|
|-----------------------2------------------------------------------|
|-----------------------------------------0-------3----------------|
|---------------------------------3--------------------------------|

   |               |               |               |
|------------------------------------------------------------------|
|-----------------------------2------------------------------------|
|-----------------------------------------------0-------3----------|
|---------------------------------------3--------------------------|

   |               |               |               |
|-------------------0---------------0------------------------------|
|---------------------------4--------------------------------------|
|-----------------------------------------------------0-------3----|
|---------------------------------------------3--------------------|

   |               |               |               |
|------------------------------------------------------------------|
|------------------------------------------------------------------|
|------------------------------------------------------------------|
|------------------------------------------------------------------|

   |               |               |               |
|------------------------------------------------------------------|
|------------------------------------------------------------------|
|-----3------------------------------------------------------------|
|-------------0----------------------------------------------------|

   |               |               |               |
|------------------------------------------------------------------|
|------------------------------------------------------------------|
|------------------------------------------------------------------|
|-----------0-------1----------------------------------------------|

   |               |               |               |
|------------------------------------------------------------------|
|------------------------------------------------------------------|
|------------------------------------------------------------------|
|-------------------------3-------3--------------------------------|

   |               |               |               |
|------------------------------------------------------------------|
|------------------------------------------------------------------|
|-------------------------------3----------------------------------|
|------------------------------------------------------------------|

   |               |               |               |
|---------------------------------------------------------------4--|
|---2--------------------------------------------------------------|
|-------------------0---------3------------------------------------|
|-----------3------------------------------------------------------|

   |               |               |               |
|---------5--------------------------------------------------------|
|------------------------------------------------------------------|
|-------------------------0---------3------------------------------|
|-----------------3------------------------------------------------|

   |               |               |               |
|------------------------------------------------------------------|
|---------------2--------------------------------------------------|
|---------------------------------0-------3------------------------|
|-----------------------3------------------------------------------|

   |               |               |               |
|------------------------------------------------------------------|
|---------------------2--------------------------------------------|
|---------------------------------------0-------3------------------|
|-----------------------------3------------------------------------|

   |               |               |               |
|------------------------------------------------------------------|
|---------------------------2--------------------------------------|
|---------------------------------------------0-------3------------|
|-----------------------------------3------------------------------|

   |               |               |               |
|------------------------------------------------------------------|
|---------------------------------2--------------------------------|
|---------------------------------------------------0-------3------|
|-----------------------------------------3------------------------|

   |               |               |               |
|------------------------------------------------------------------|
|---------------------------------------2--------------------------|
|---------------------------------------------------------0--------|
|-----------------------------------------------3------------------|

   |               |               |               |
|------------------------------------------------------------------|
|---------------------------------------------2--------------------|
|-3-------------------------------------------------------------0--|
|-----------------------------------------------------3------------|

   |               |               |               |
|------------------------------------------------------------------|
|------------------------------------------------------------------|
|-------3----------------------------------------------------------|
|------------------------------------------------------------------|


Created with TablEdit http://www.tabledit.com/