´╗┐ c | cocker joe | unchain my heart btab online player | |


  
#-----------------------------PLEASE NOTE-------------------------------------#
#This OLGA file is the author's own work and represents their interpretation  #
#of the song. You may only use this file for private study, scholarship, or   #
#research. Remember to view this file in Courier, or some other monospaced    #
#font. See http://www.olga.net/faq/ for more information.                     #
#-----------------------------------------------------------------------------#

Date: Thu, 28 Mar 2002 15:24:05 +0200
From: "Jan Bjorklund" 
Subject: c/cocker_joe/unchain_my_heart.btab

joe cocker_unchain my heart

TablEdited by Jan Bjorklund   
You are welcome to request for tabs!
Fingering and positions as suggested by TablEdit, please use common sense.


TablEdited by Jan Bjorklund
Tuning : E A D G 	Time Signature: 4/4


  |               |               |               |
|----------------------------------------------------------------|
|----------------------------------------------------------------|
|------------------------------------------0-----------------0---|
|----------------------------------3-----------------------------|

  |               |               |               |
|------------------------------0---2-----------------------------|
|----------------------------------------------------------------|
|------------0---------0-----------------0-------0---------------|
|----------------------------------------------------------------|

  |               |               |               |
|----------------------------------------------------------------|
|----------------------------------------------------------------|
|--0-------------------------------------------0-------0-------0-|
|----------0-----------------3-----------------------------------|

  |               |               |               |
|----------------------------------------------------------------|
|----------------------------------------------------------------|
|--------0-------0---------0-------0-------0---------0-------0---|
|----------------------------------------------------------------|

  |               |               |               |
|----------------------------------------------------------------|
|----------------------------------------------------------------|
|----0---------0-------0---------0-------------------------0-----|
|----------------------------------------3-------0---------------|

  |               |               |               |
|----------------------------------------------------------------|
|----------------------------------------------------------------|
|--0-------0---------0-------0---------0-------0-------0---------|
|----------------------------------------------------------------|

  |               |               |               |
|----------------------------------------------------------------|
|----------------------------------------------------------------|
|0-------0---------0-------0-------0---------0-------3-------0---|
|----------------------------------------------------------------|

  |               |               |               |
|----------------------------------------------------------------|
|--------------0---------0-------0-------0---------0-------0-----|
|------3---------------------------------------------------------|
|----------------------------------------------------------------|

  |               |               |               |
|----------------------------------------------------------------|
|----0-------0-------0---------0-------0-------------------------|
|----------------------------------------------------------------|
|----------------------------------------------3---------3-------|

  |               |               |               |
|----------------------------------------------------------------|
|----------------------------------------------------------------|
|------------------0-------0---------0-------0-------0---------0-|
|3---------3-----------------------------------------------------|

  |               |               |               |
|----------------------------------------------------------------|
|----------------------------------------------------------------|
|------0---------0-------0-------0---------0-------0---------0---|
|----------------------------------------------------------------|

  |               |               |               |
|----------------------------------------------------------------|
|------------------------------0-------0---------0-------0-------|
|----0-------3---------0-----------------------------------------|
|----------------------------------------------------------------|

  |               |               |               |
|----------------------------------------------------------------|
|--0-------0-------0---------------------------------------------|
|------------------------------------0-------0---------0-------0-|
|----------------------------3-----------------------------------|

  |               |               |               |
|----------------------------------------------------------------|
|------------------------------------------0---------0-------0---|
|--------0-------0-------3---------0-----------------------------|
|----------------------------------------------------------------|

  |               |               |               |
|----------------------------------------------------------------|
|----0---------0-------0-----------------------------------------|
|------------------------------------------------0---------0-----|
|------------------------------0---------3-----------------------|

  |               |               |               |
|----------------------------------------------------------------|
|----------------------------------------------------------------|
|--0-------0---------0-------2---------3-------------------------|
|----------------------------------------------0-------1---------|

  |               |               |               |
|----------------------------------------------------------------|
|----------------------------------------------------3-------2---|
|----------------------------------0---------3-------------------|
|1-------1-------1-------1---------------------------------------|

  |               |               |               |
|----------------------------------------------------------------|
|------2-------2-------2---------2-------------------------------|
|----------------------------------------------------------------|
|----------------------------------------0---------3-------0-----|

  |               |               |               |
|----------------------------------------------------------------|
|----------------------------------------------------------------|
|--0---------0-------0---------0-------0-------0---------0-------|
|----------------------------------------------------------------|

  |               |               |               |
|----------------------------------------------------------------|
|----------------------------------------------------------------|
|0-------0---------0-------0---------0---------------------------|
|--------------------------------------------0-----------------3-|

  |               |               |               |
|----------------------------------------------------------------|
|----------------------------------------------------------------|
|--------------0---------0-------0---------0-------0-------0-----|
|----------------------------------------------------------------|

  |               |               |               |
|----------------------------------------------------------------|
|----------------------------------------------------------------|
|----0-------0---------0-------0-------0---------0-------0-------|
|----------------------------------------------------------------|

  |               |               |               |
|----------------------------------------------------------------|
|----------------------------------------------------------------|
|0---------0-------0-----------------0-------0---------0-------0-|
|----------------------------3-----------------------------------|

  |               |               |               |
|----------------------------------------------------------------|
|----------------------------------------------------------------|
|------0---------0-------0---------0-------0-------0---------0---|
|----------------------------------------------------------------|

  |               |               |               |
|----------------------------------------------------------------|
|----------------------2-----------------0-------0-------0-------|
|----0---------0---------------3---------------------------------|
|----------------------------------------------------------------|

  |               |               |               |
|----------------------------------------------------------------|
|--0-------0---------0-------0-------0---------0-------0---------|
|----------------------------------------------------------------|
|----------------------------------------------------------------|

  |               |               |               |
|----------------------------------------------------------------|
|----------------------------------------------------------------|
|0---------------------------------------------------0-------0---|
|--------4-------3-----------------1/----0-----------------------|

  |               |               |               |
|----------------------------------------------------------------|
|----------------------------------------------------------------|
|------0-------0-------0---------0-------0-------0---------0-----|
|----------------------------------------------------------------|

  |               |               |               |
|----------------------------------------------------------------|
|----------------------------------------------------------------|
|--0---------0-------0-------0---------2-------3---------4-------|
|----------------------------------------------------------------|

  |               |               |               |
|----------------------------------------------------------------|
|0-------0---------0-------0-------0---------0-------0-----------|
|----------------------------------------------------------------|
|--------------------------------------------------------------3-|

  |               |               |               |
|----------------------------------------------------------------|
|----------------------------------------------------------------|
|------0-------0---------0-------0-------0---------0-------3-----|
|----------------------------------------------------------------|


Created with TablEdit http://www.tabledit.com/