´╗┐ c | cocker joe | summer in the city btab online player | |


  
#-----------------------------PLEASE NOTE-------------------------------------#
#This OLGA file is the author's own work and represents their interpretation  #
#of the song. You may only use this file for private study, scholarship, or   #
#research. Remember to view this file in Courier, or some other monospaced    #
#font. See http://www.olga.net/faq/ for more information.                     #
#-----------------------------------------------------------------------------#

Date: Thu, 28 Mar 2002 15:21:20 +0200
From: "Jan Bjorklund" 
Subject: c/cocker_joe/summer_in_the_city.btab

joe cocker_summer in the city

TablEdited by Jan Bjorklund   
You are welcome to request for tabs!
Fingering and positions as suggested by TablEdit, please use common sense.


TablEdited by Jan Bjorklund
Tuning : E A D G 	Time Signature: 4/4

  |               |               |               |
|----------------------------------------------------------------|
|0---------------------------------------------------------------|
|------------------------------------------------3---------------|
|----------------------------------------------------------------|

  |               |               |               |
|----------------------------------------------------------------|
|----------------------------------------------------------------|
|1-----------------------------------------------0---------------|
|----------------------------------------------------------------|

  |               |               |               |
|----------------------------------------------------------------|
|0---------------------------------------------------------------|
|------------------------------------------------3---------------|
|----------------------------------------------------------------|

  |               |               |               |
|----------------------------------------------------------------|
|----------------------------------------------------------------|
|1-----------------------------------------------0---------------|
|----------------------------------------------------------------|

  |               |               |               |
|----------------------------------------------------------------|
|0-----------------------3---0---------------------------3-------|
|--------------------------------3---------------------------3---|
|----------------------------------------------------------------|

  |               |               |               |
|----------------------------------------------------------------|
|------------------------3---------------------------------------|
|2---------------------------2---1---------------0---------------|
|----------------------------------------------------------------|

  |               |               |               |
|----------------------------------------------------------------|
|0-----------------------3---0---------------------------3-------|
|--------------------------------3---------------------------3---|
|----------------------------------------------------------------|

  |               |               |               |
|----------------------------------------------------------------|
|------------------------3-------------------------------0---2---|
|2---------------------------2---1-------------------------------|
|----------------------------------------------------------------|

  |               |               |               |
|2-----------------------2-------0-----------------------0-------|
|----------------------------------------------------------------|
|----------------------------------------------------------------|
|----------------------------------------------------------------|

  |               |               |               |
|----------------------------------------------------------------|
|3-----------------------3-------4-----------------------0-------|
|----------------------------------------------------------------|
|----------------------------------------------------------------|

  |               |               |               |
|----------------------------------------------------------------|
|--------------------------------------------------------0-------|
|------------------------------------------------2---2-----------|
|2-----------------------2---------------3---3-------------------|

  |               |               |               |
|------------------------0---------------------------------------|
|----------------2---2-----------------------------------0-------|
|--------3---3-----------------------------------2---2-----------|
|----------------------------------------3---3-------------------|

  |               |               |               |
|----------------4---2---0---------------------------------------|
|--------------------------------------------------------0-------|
|------------3-----------------------------------2---2-----------|
|----------------------------------------3---3-------------------|

  |               |               |               |
|------------------------0---------------------------------------|
|----------------2---------------------------------------0-------|
|--------3---------------------------------------2---------------|
|----------------------------------------------------------------|

  |               |               |               |
|------------------------0---2-----------------------------------|
|----------------2---2-----------2-------2-------2---------------|
|--------3-------------------------------------------------------|
|----------------------------------------------------------------|

  |               |               |               |
|----------------------------------------------------------------|
|------------------------2---------------2-------2---------------|
|0-----------0---4-----------------------------------------------|
|----------------------------------------------------------------|

  |               |               |               |
|----------------------------------------------------------------|
|------------------------2-----------------------2---------------|
|0-----------0---4-----------------------2-----------------------|
|----------------------------------------------------------------|

  |               |               |               |
|----------------------------------------------------------------|
|------------------------2-----------------------2---------------|
|0-----------0---4-----------------------2-----------------------|
|----------------------------------------------------------------|

  |               |               |               |
|----------------------------------------------------------------|
|------------------------2-------0-------------------------------|
|0-----------0---4-----------------------------------------------|
|----------------------------------------------------------------|

  |               |               |               |
|----------------------------------------------------------------|
|----------------------------------------------------------------|
|----------------3---------------1-------------------------------|
|----------------------------------------------------------------|

  |               |               |               |
|----------------------------------------------------------------|
|--------------------------------0-----------------------3---0---|
|----------------0-----------------------------------------------|
|----------------------------------------------------------------|

  |               |               |               |
|----------------------------------------------------------------|
|------------------------3-------------------------------0-------|
|3---------------------------3---2---------------------------2---|
|----------------------------------------------------------------|

  |               |               |               |
|----------------------------------------------------------------|
|--------------------------------0-----------------------3---0---|
|1---------------0-----------------------------------------------|
|----------------------------------------------------------------|

  |               |               |               |
|----------------------------------------------------------------|
|------------------------3-------------------------------0-------|
|3---------------------------3---2---------------------------2---|
|----------------------------------------------------------------|

  |               |               |               |
|--------------------------------2-----------------------2-------|
|------------------------0---2-----------------------------------|
|1---------------------------------------------------------------|
|----------------------------------------------------------------|

  |               |               |               |
|0-----------------------0---------------------------------------|
|--------------------------------3-----------------------3-------|
|----------------------------------------------------------------|
|----------------------------------------------------------------|

  |               |               |               |
|----------------------------------------------------------------|
|4-----------------------0---------------------------------------|
|----------------------------------------------------------------|
|--------------------------------2-----------------------2-------|

  |               |               |               |
|--------------------------------------------------------0-------|
|------------------------0-----------------------2---2-----------|
|----------------2---2-------------------3---3-------------------|
|--------3---3---------------------------------------------------|

  |               |               |               |
|------------------------------------------------4---2---0-------|
|------------------------0---------------------------------------|
|----------------2---2-------------------3---3-------------------|
|--------3---3---------------------------------------------------|

  |               |               |               |
|--------------------------------------------------------0-------|
|------------------------0-----------------------2---------------|
|----------------2---2-------------------3-----------------------|
|--------3---3---------------------------------------------------|

  |               |               |               |
|--------------------------------------------------------0---2---|
|------------------------0-----------------------2---2-----------|
|----------------2-----------------------3-----------------------|
|--------3-------------------------------------------------------|

  |               |               |               |
|----------------------------------------------------------------|
|2-------2-------2---------------------------------------2-------|
|--------------------------------0-----------0---4---------------|
|----------------------------------------------------------------|

  |               |               |               |
|----------------------------------------------------------------|
|--------2-------2---------------------------------------2-------|
|--------------------------------0-----------0---4---------------|
|----------------------------------------------------------------|

  |               |               |               |
|----------------------------------------------------------------|
|----------------2---------------------------------------2-------|
|--------2-----------------------0-----------0---4---------------|
|----------------------------------------------------------------|

  |               |               |               |
|----------------------------------------------------------------|
|----------------2---------------------------------------2-------|
|--------2-----------------------0-----------0---4---------------|
|----------------------------------------------------------------|

  |               |               |               |
|----------------------------------------------------------------|
|0---------------------------------------------------------------|
|------------------------------------------------3---------------|
|----------------------------------------------------------------|

  |               |               |               |
|----------------------------------------------------------------|
|----------------------------------------------------------------|
|1-----------------------------------------------0---------------|
|----------------------------------------------------------------|

  |               |               |               |
|----------------------------------------------------------------|
|0---------------------------------------------------------------|
|------------------------------------------------3---------------|
|----------------------------------------------------------------|

  |               |               |               |
|----------------------------------------------------------------|
|----------------------------------------------------------------|
|1-----------------------------------------------0---------------|
|----------------------------------------------------------------|

  |               |               |               |
|0-----------------------0---0-----------------------------------|
|--------------------------------3-----------------------3---3---|
|----------------------------------------------------------------|
|----------------------------------------------------------------|

  |               |               |               |
|----------------------------------------------------------------|
|2-----------------------2---2---1---------------0---------------|
|----------------------------------------------------------------|
|----------------------------------------------------------------|

  |               |               |               |
|0-----------------------0---0-----------------------------------|
|--------------------------------3-----------------------3---3---|
|----------------------------------------------------------------|
|----------------------------------------------------------------|

  |               |               |               |
|----------------------------------------------------------------|
|2-----------------------2---2---1-----------------------1---1---|
|----------------------------------------------------------------|
|----------------------------------------------------------------|

  |               |               |               |
|----------------------------------------------------------------|
|0-----------------------0---0-----------------------------------|
|--------------------------------3-----------------------3---3---|
|----------------------------------------------------------------|

  |               |               |               |
|----------------------------------------------------------------|
|----------------------------------------------------------------|
|2-----------------------2---2---1---------------0---------------|
|----------------------------------------------------------------|

  |               |               |               |
|----------------------------------------------------------------|
|0-----------------------0---0-----------------------------------|
|--------------------------------3-----------------------3---3---|
|----------------------------------------------------------------|

  |               |               |               |
|----------------------------------------------------------------|
|----------------------------------------------------------------|
|2-----------------------2---2---1-----------------------1---1---|
|----------------------------------------------------------------|

  |               |               |               |
|2-------2-------2-------2-------0-------0-------0-------0-------|
|----------------------------------------------------------------|
|----------------------------------------------------------------|
|----------------------------------------------------------------|

  |               |               |               |
|----------------------------------------------------------------|
|3-------3-------3-------3-------4-------4-------4-------0-------|
|----------------------------------------------------------------|
|----------------------------------------------------------------|

  |               |               |               |
|----------------------------------------------------------------|
|4-------------------------------------------------------0-------|
|------------------------------------------------2---------------|
|----------------------------------------3---3-------------------|

  |               |               |               |
|------------------------0---------------------------------------|
|----------------2---------------------------------------0-------|
|--------3---3-----------------------------------2---------------|
|----------------------------------------3---3-------------------|

  |               |               |               |
|------------------------0---------------------------------------|
|----------------2---------------------------------------0-------|
|--------3---3-----------------------------------2---------------|
|----------------------------------------3---3-------------------|

  |               |               |               |
|------------------------0---2---0-------------------------------|
|----------------2---------------------------------------0-------|
|--------3---------------------------------------2---------------|
|----------------------------------------3---3-------------------|

  |               |               |               |
|------------------------0---2-----------------------------------|
|----------------2---------------2-------2-------2-------2-------|
|--------3-------------------------------------------------------|
|----------------------------------------------------------------|

  |               |               |               |
|----------------------------------------------------------------|
|------------------------2-----------------------2-------2-------|
|0---------------------------------------2-----------------------|
|----------------------------------------------------------------|

  |               |               |               |
|----------------------------------------------------------------|
|------------------------2-----------------------2-------2-------|
|0---------------4-----------------------2-----------------------|
|----------------------------------------------------------------|

  |               |               |               |
|----------------------------------------------------------------|
|------------------------2-----------------------2-------2-------|
|0---------------4-----------------------2-----------------------|
|----------------------------------------------------------------|

  |               |               |               |
|----------------------------------------------------------------|
|------------------------2-----------------------4---------------|
|0---------------4-----------------------4-----------------------|
|----------------------------------------------------------------|

  |               |               |               |
|----------------------------------------------------------------|
|----------------1-------4-----------------------4---------------|
|2---------------------------------------4---------------4-------|
|----------------------------------------------------------------|

  |               |               |               |
|----------------------------------------------------------------|
|----------------1-------4-----------------------4---------------|
|--------2---4-------2-------------------4---------------4-------|
|----------------------------------------------------------------|

  |               |               |               |
|----------------------------------------------------------------|
|----------------1-------4-----------------------4---------------|
|--------2---4-------2-------------------4---------------4-------|
|----------------------------------------------------------------|

  |               |               |               |
|--------------------------------------------------------0-------|
|----------------1-------4-------2---------------------------2---|
|--------2---4-------2-------------------------------------------|
|----------------------------------------------------------------|

  |               |               |               |
|------------------------0---------------------------------------|
|0---------------------------0---------------------------2-------|
|--------------------------------4---------------------------4---|
|----------------------------------------------------------------|

  |               |               |               |
|--------------------------------------------------------0-------|
|--------------------------------2---------------------------2---|
|3---------------2-----------------------------------------------|
|----------------------------------------------------------------|

  |               |               |               |
|------------------------0---------------------------------------|
|0---------------------------0---------------------------2-------|
|--------------------------------4---------------------------4---|
|----------------------------------------------------------------|

  |               |               |               |
|--------------------------------------------------------0-------|
|--------------------------------2---------------------------2---|
|3---------------2-----------------------------------------------|
|----------------------------------------------------------------|

  |               |               |               |
|------------------------0---------------------------------------|
|0---------------------------0---------------------------2-------|
|--------------------------------4---------------------------4---|
|----------------------------------------------------------------|

  |               |               |               |
|----------------------------------------------------------------|
|--------------------------------2-----------------------2---2---|
|3---------------2-----------------------------------------------|
|----------------------------------------------------------------|

  |               |               |               |
|------------------------0---------------------------------------|
|0---------------------------0-----------------------------------|
|--------------------------------4-----------------------4---4---|
|----------------------------------------------------------------|

  |               |               |               |
|--------------------------------------------------------0-------|
|--------------------------------2---------------------------2---|
|3---------------2-----------------------------------------------|
|----------------------------------------------------------------|

  |               |               |               |
|------------------------0---------------------------------------|
|0---------------------------0---------------------------2-------|
|--------------------------------4---------------------------4---|
|----------------------------------------------------------------|

  |               |               |               |
|--------------------------------------------------------0-------|
|--------------------------------2---------------------------2---|
|3---------------2-----------------------------------------------|
|----------------------------------------------------------------|

  |               |               |               |
|------------------------0---------------------------------------|
|0---------------------------0---------------------------2-------|
|--------------------------------4---------------------------4---|
|----------------------------------------------------------------|

  |               |               |               |
|--------------------------------------------------------0-------|
|--------------------------------2---------------------------2---|
|3---------------2-----------------------------------------------|
|----------------------------------------------------------------|

  |               |               |               |
|------------------------0---------------------------------------|
|0---------------------------0---------------------------2-------|
|--------------------------------4---------------------------4---|
|----------------------------------------------------------------|

  |               |               |               |
|----------------------------------------------------------------|
|--------------------------------2-----------------------2---2---|
|3---------------2-----------------------------------------------|
|----------------------------------------------------------------|

  |               |               |               |
|------------------------0---------------------------------------|
|0---------------------------0-----------------------------------|
|--------------------------------4-----------------------4---4---|
|----------------------------------------------------------------|

  |               |               |               |
|----------------------------------------------------------------|
|----------------------------------------------------------------|
|3---------------2---------------0-----------------------0---0---|
|----------------------------------------------------------------|

  |               |               |               |
|----------------------------------------------------------------|
|----------------------------------------------------------------|
|0-----------------------0---2---3-----------------------3---3---|
|----------------------------------------------------------------|

  |               |               |               |
|----------------------------------------------------------------|
|----------------------------------------------------------------|
|2---------------2-----------------------------------------------|
|--------------------------------0-------------------------------|



Created with TablEdit http://www.tabledit.com/