´╗┐ c | cocker joe | now that the magic has gone btab online player | |


  
#-----------------------------PLEASE NOTE-------------------------------------#
#This OLGA file is the author's own work and represents their interpretation  #
#of the song. You may only use this file for private study, scholarship, or   #
#research. Remember to view this file in Courier, or some other monospaced    #
#font. See http://www.olga.net/faq/ for more information.                     #
#-----------------------------------------------------------------------------#

Date: Fri, 23 May 2003 22:39:37 +0200 (CEST)
From: Jan Bj÷rklund 
Subject: c/cocker_joe/now_that_the_magic_has_gone.btab

Basstab by Jan Bjorklund, Finland; 
jani_bjorklund@yahoo.se 
You are welcome to request for basstabs!
Bienvenidos a pedirme transcripciones para el bajo!


TablEdited by Jan Bjorklund
Tuning : E A D G 	Time Signature: 6/8

 |           |            |           |            |           |            
|------------------------|------------------------|------------------------|
|2-----------------------|2---------------2---1---|0-----------------------|
|--------------------2---|------------------------|--------------------0---|
|------------------------|------------------------|------------------------|

 |           |            |           |            |           |            
|------------------------|------------------------|------------------------|
|0-----------------------|------------------------|------------------------|
|------------------------|3-----------------------|3-------------------3---|
|--------------------3---|--------------------3---|------------------------|

 |           |            |           In my        life I've seen           
|------------------------|------------------------|------------------------|
|------------------------|----------------0---1---|2-------------------2---|
|----------------0---1---|2-----------2-----------|------------------------|
|2---2---2---2-----------|------------------------|------------------------|

 sorrow...   |            |           |            |           |            
|------------------------|------------------------|------------------------|
|--------------------2---|0-------------------0---|------------------------|
|------------------------|------------------------|------------------------|
|------------------------|------------------------|--------------------3---|

 |           |            |           |            |           |            
|------------------------|------------------------|------------------------|
|------------------------|------------------------|------------------------|
|3-------------------3---|--------------------3---|2-----------------------|
|------------------------|------------------------|--------------------2---|

 |           |            |           Had too many  lovers
   |            
|------------------------|------------------------|------------------------|
|----------------0---1---|2-------------------2---|--------------------2---|
|2-----------------------|------------------------|------------------------|
|------------------------|------------------------|------------------------|

 |           |            |           |            |           |            
|------------------------|------------------------|------------------------|
|0-------------------0---|------------------------|------------------------|
|------------------------|------------------------|3-------------------3---|
|------------------------|--------------------3---|------------------------|

 |           |            |           |            |           |            
|------------------------|------------------------|------------------------|
|------------------------|------------------------|------------------------|
|------------------------|--------------------0---|2-----------2-----------|
|--------------------3---|2-----------------------|------------------------|

 |           I was locked prison...   |            |           |            
|------------------------|------------------------|------------------------|
|------------------------|--------------------0---|2-------------------2---|
|0-----------------------|0---------------0h2-----|------------------------|
|--------------------3---|------------------------|------------------------|

 |           |            |           |            |           |            
|------------------------|------------------------|------------------------|
|------------------------|------------------------|------------------------|
|------------------------|0-------------------0---|------------------------|
|0---------------3---4---|------------------------|3-------------------3---|

 |           |            |           |            Now that the|            
|------------------------|------------------------|------------------------|
|------------------------|----------------0-------|2-------2-------2-------|
|----------------0---1---|2-------2---2-------2---|--------------------2---|
|2-------2---------------|------------------------|------------------------|

 magic has gone..         |           |            |           |            
|------------------------|------------------------|------------------------|
|0-------0---------------|------------------------|------------------------|
|------------------------|0-----------------------|0-------0---3-------3---|
|----------------3---4---|--------------------3---|------------------------|

 |           |            |           |            |           |            
|------------------------|------------------------|------------------------|
|0-----------------------|0-------------------0---|------------------------|
|--------------------0---|------------------------|------------------------|
|------------------------|------------------------|3-------------------3---|

 |           |            Now that the|            magic has gone..         
|------------------------|------------------------|------------------------|
|------------------------|2-------2-------2---1---|0-------0---------------|
|------------2-----------|------------------------|------------------------|
|2-------2---------------|------------------------|----------------3---4---|

 |           |            |           there's no   sense in holding on      
|------------------------|------------------------|------------------------|
|------------------------|------------------------|------------------------|
|0-------0---------------|0-------------------2---|3-----------------------|
|--------------------3---|------------------------|--------------------3---|

 |           |            Baby now,   |            now that the|magic is go 
|------------------------|------------------------|------------------------|
|------------------------|------------------------|----------------0-------|
|3-------------------3---|------------------------|2-------2---2-------2---|
|------------------------|2-------2---2-------4---|------------------------|

 S O L O     |            |           |            |           |            
|------------------------|------------------------|------------------------|
|2-------2-----------0---|2---------------2---1---|0-----------------------|
|----------------2-------|------------------------|--------------------0---|
|------------------------|------------------------|------------------------|

 |           |            |           |            |           |            
|----------------2-------|------------------------|------------------------|
|0-----------0-------0---|------------------------|------------------------|
|------------------------|3-----------------------|3-----------3-------3---|
|------------------------|--------------------3---|------------------------|

 |           |            |           |            |           |            
|------------------------|------------------------|------------------------|
|------------------------|----------------0---1---|2-------------------2---|
|------------------------|2-----------2-----------|------------------------|
|2---2---2---2---2---2---|------------------------|------------------------|

 |           |            |           |            |           |            
|------------------------|------------------------|------------------------|
|--------------------2---|0-------------------0---|------------------------|
|------------------------|------------------------|--------------------0---|
|------------------------|------------------------|----------------3-------|

 |           |            |           |            |           |            
|------------------------|------------------------|------------------------|
|------------------------|------------------------|------------------------|
|3-------------------3---|--------------------3---|2-----------------------|
|------------------------|------------------------|--------------------2---|

 |           |            |           |            |           |            
|------------------------|------------------------|------------------------|
|----------------0---1---|2-------------------2---|----------------2-------|
|2-------2---2-----------|------------------------|--------------------2---|
|------------------------|------------------------|------------------------|

 |           |            |           |            |           |            
|------------------------|------------------------|------------------------|
|0-------------------0---|------------------------|------------------------|
|------------------------|--------------------2---|3-------------------3---|
|------------------------|----------------3-------|------------------------|

 |           |            |           |            |           |            
|------------------------|------------------------|------------------------|
|------------------------|------------------------|------------------------|
|----------------3-------|----------------0---1---|2-----------2-------1---|
|--------------------3---|2-------2---------------|------------------------|

 |           |            |           |            |           |            
|------------------------|------------------------|------------------------|
|------------------------|--------------------0---|2-----------2-----------|
|0-----------------------|0-----------0---0h2-----|--------------------2p0-|
|----------------0---3---|------------------------|------------------------|

 |           |            |           |            |           |            
|------------------------|------------------------|------------------------|
|------------------------|----------------2-------|------------------------|
|------------------------|0-----------0-------0---|------------------------|
|0-------0---0---3---4---|------------------------|3-------------------3---|

 |           |            |           |            |           |            
|------------------------|------------------------|------------------------|
|------------------------|----------------0---0---|2-------2-------2-------|
|------------------------|2---2---2---2-----------|--------------------2---|
|2-------2---2-------2h3-|------------------------|------------------------|

 |           |            |           |            |           |            
|------------------------|--------------------0---|2-------2---------------|
|0-------0---------------|----------------0h2-----|------------2-------2---|
|------------------------|0-------0---------------|------------------------|
|----------------3---4---|------------------------|------------------------|

 |           |            |           |            |           |            
|------------------------|------------------------|------------------------|
|0-----------------------|0-------0---------------|----------------0-------|
|--------------------0---|--------------------0---|------------------------|
|------------------------|------------------------|3-------3-----------3---|

 |           |            |           |            |           |            
|------------------------|------------------------|------------------------|
|------------------------|2-------2-------2-------|0-------0---------------|
|------------2-------0h2-|--------------------2---|------------------------|
|2-------2-------2-------|------------------------|----------------3---4---|

 |           |            |           |            |           |            
|--------------------0---|2-------2---------------|------------------------|
|----------------2-------|------------------------|------------------------|
|0-------0---------------|------------0-------2---|3-----------------------|
|------------------------|------------------------|------------------------|

 |           |            |           |            |           |            
|--------------------0---|------------------------|------------------------|
|------------------------|4---4---4---4---4---4---|------------------------|
|3-------3---3-----------|------------------------|2---2---2---2---2---2---|
|------------------------|------------2---2---2---|------------------------|

 |           |            |           |            |           |            
|------------------------|------------------------|------------------------|
|------------------------|--------------------0---|2-------2---2-------2---|
|3-------3---3-------3---|3-------3---3-----------|------------------------|
|------------------------|------------------------|------------------------|

 |           |            |           |            |           |            
|------------------------|------------------------|--------------------0---|
|2-------2---2-------0---|------------------------|------------------------|
|----------------0-------|3-------3---3-------3---|3-------3---3/--7-------|
|------------------------|------------------------|------------------------|

 |           |            |           |            |           |            
|------------------------|------------------------|------------------------|
|4---4---4---4---4---4---|------------------------|2-------------------2---|
|------------------------|2-----------------------|------------------------|
|------------------------|------------------------|------------------------|

 |           |            |           |            |           |            
|------------------------|------------------------|------------------------|
|------------------------|0-------------------0---|------------------------|
|----------------0---2---|------------------------|------------------------|
|------------------------|------------------------|--------------------3---|

 |           |            |           |            |           |            
|------------------------|------------------------|------------------------|
|------------------------|------------------------|--------------------0---|
|3-------3-----------3---|----------------3-------|2-----------------------|
|------------------------|------------3-------3---|------------------------|

 |           |            |           |            |           |            
|4-----------------------|------------------------|------------------------|
|--------------------0---|2-------------------2---|----------------2---1---|
|----------------2-------|------------------------|------------2-----------|
|------------------------|------------------------|------------------------|

 |           |            |           |            |           |            
|------------------------|------------------------|------------------------|
|0-------------------0---|------------0-----------|------------------------|
|------------------------|--------------------0---|3-------------------3---|
|------------------------|----------------3-------|------------------------|

 |           |            |           |            |           |            
|------------------------|------------------------|------------------------|
|------------------------|------------4-------4---|------------------------|
|------------3-----------|------------------------|2-------2---2-----------|
|--------------------3---|2-------2---------------|----------------3---4---|

 |           |            |           |            |           |            
|------------------------|------------------------|------------------------|
|------------------------|------------------------|2-------2-----------2---|
|0-------0---------------|0-------0-----------0h2-|------------------------|
|--------------------3---|------------------------|------------------------|

 |           |            |           |            |           |            
|------------------------|------------------------|------------------------|
|------------------------|----------------2-------|------------------------|
|------------------------|0-------0---------------|------------------------|
|0---0---0---0---3---4---|------------------------|3-------------------3---|

 |           |            |           |            |           |            
|------------------------|------------------------|------------------------|
|------------------------|----------------0-------|2-------2-------2---1---|
|------------------------|2-----------2-------2---|------------------------|
|2-------2---2---2---4---|------------------------|------------------------|

 |           |            |           |            |           |            
|------------------------|--------------------0---|2-----------------------|
|0-------0---------------|----------------0h2-----|------------------------|
|------------------------|0-----------------------|------------0-------3---|
|----------------3---4---|------------------------|------------------------|

 |           |            |           |            |           |            
|--------------------2---|------------------------|------------------------|
|0-----------------------|0-----------------------|------------5-----------|
|------------------------|------------------------|------------------------|
|------------------------|------------------------|3-----------------------|

 |           |            |           |            |           |            
|------------------------|------------------------|--------------------0---|
|------------------------|2---------------2---1---|0-------0-------0h2-----|
|------------2-----------|------------------------|------------------------|
|2-------3h5-------------|------------------------|------------------------|

 |           |            |           |            |           |            
|2-----------------------|------------------------|----------------2---0---|
|----------------2-------|------------------------|------------------------|
|--------------------3---|0---------------0---2---|3-----------------------|
|------------------------|------------------------|------------------------|

 |           |            |           |            |           |            
|------------------------|------------------------|------------------------|
|------------------------|------------------------|----------------0---1---|
|3-------3---------------|------------------------|2---2---2---2-----------|
|------------3-------3---|2-------2---2---2---2---|------------------------|

 |           |            |           |            |           |            
|------------------------|------------------------|--------------------0---|
|2-------2-------2---1---|0-------0---------------|----------------2-------|
|------------------------|------------------------|0-------0---------------|
|------------------------|----------------3---4---|------------------------|

 |           |            |           |            |           |            
|4-------2---------------|------------------------|------------------------|
|----------------2---2---|0-------0---------------|0-------0-------0-------|
|------------------------|----------------0---3---|--------------------0---|
|------------------------|------------------------|------------------------|

 |           |            |           |            |           |            
|--------------------0---|------------------------|------------------------|
|------------0-----------|4-------4-------0---1---|2-----------------------|
|------------------------|------------2-----------|------------------------|
|3-------3---------------|------------------------|------------------------|


Transcribe! 6.0 transcription http://www.seventhstring.demon.co.uk/
Created with TablEdit http://www.tabledit.com/


_____________________________________________________