c | clapton richard | walk on water tab online player | |


  
#-----------------------------PLEASE NOTE-------------------------------------#
#This OLGA file is the author's own work and represents their interpretation  #
#of the song. You may only use this file for private study, scholarship, or   #
#research. Remember to view this file in Courier, or some other monospaced    #
#font. See http://www.olga.net/faq/ for more information.                     #
#-----------------------------------------------------------------------------#

Date: Tue, 17 Jun 2003 11:21:51 +1000
From: Michael 
Subject: c/clapton_richard/walk_on_water.tab

Transcribe by Michael Brown.
This tab is all my own work.
Album The Great Escape
web site www.richardclapton.net

Walk On Water
Richard Clapton

Each - represents a 16th note.
The strumming pattern for the first 8 measures is indicative of the
whole song but you need to listen to it and play along. Its a feel thing.


Tuning DADGAD

D75525
This tuning notation refers to how you tune your guitar.
ie Tune your top string to D then
hold on the 7th fret to tune the next string to A etc etc
-------------------------------------------------------------------

INTRO

 1 2 3 4
 1 + 2 + 3 + 4 + 1 + 2 + 3 + 4 + 1 + 2 + 3 + 4 + 1 + 2 + 3 + 4 +

D --------0---------------0---------------0---------------0------
A ------------0---------------0---------------0---------------0--
G ----0---------------0---------------0---------------0----------
D 5---------------5---------------5---------------5--------------
A 5---------------5---------------5---------------5--------------
D 5---------------5---------------4- -------------4--------------

 5 6 7 8
 1 + 2 + 3 + 4 + 1 + 2 + 3 + 4 + 1 + 2 + 3 + 4 + 1 + 2 + 3 + 4 +

D --------0---------------0---------------0---------------0------
A ------------0---------------0---------------0---------------0--
G ----0---------------0---------------0---------------0----------
D 2---------------2---------------5---------------5--------------
A 2---------------2---------------5---------------5--------------
D 2---------------2---------------4- -------------4--------------

 9 10 11 12
 1 + 2 + 3 + 4 + 1 + 2 + 3 + 4 + 1 + 2 + 3 + 4 + 1 + 2 + 3 + 4 +

D --------0---------------0---------------0---------------0------
A ------------0---------------0---------------0---------------0--
G ----0---------------0---------------0---------------0----------
D 5---------------5---------------5---------------5--------------
A 5---------------5---------------5---------------5--------------
D 5---------------5---------------4- -------------4--------------

 13 14 15 16
 1 + 2 + 3 + 4 + 1 + 2 + 3 + 4 + 1 + 2 + 3 + 4 + 1 + 2 + 3 + 4 +
h = hammer on
D --------0-------------------------------0----------------------
A ------------0-------------------------------0------------------
G ----0----------------------------------------------------------
D 2---------------2----------------2--------------2--------------
A 2---------------------------0-h-2---------------2-------2---0--
D 2-------------------------------2---------------2--------------

Chorus

 17 18 19 20
 1 + 2 + 3 + 4 + 1 + 2 + 3 + 4 + 1 + 2 + 3 + 4 + 1 + 2 + 3 + 4 +

D --------0---------------0---------------0---------------0------
A ------------0---------------0---------------0---------------0--
G ----0---------------0---------------0---------------0----------
D 5---------------5---------------5---------------5--------------
A 5---------------5---------------5---------------5--------------
D 5---------------5---------------4- -------------4--------------
 A walk on the water yea


 21 22 23 24
 1 + 2 + 3 + 4 + 1 + 2 + 3 + 4 + 1 + 2 + 3 + 4 + 1 + 2 + 3 + 4 +

D --------0---------------0---------------0---------------0------
A ------------0---------------0---------------0---------------0--
G ----0---------------0---------------0---------------0----------
D 2---------------2---------------5---------------5--------------
A 2---------------2---------------5---------------5--------------
D 2---------------2---------------4- -------------4--------------
 you can reach the dry land

 25 26 27 28
 1 + 2 + 3 + 4 + 1 + 2 + 3 + 4 + 1 + 2 + 3 + 4 + 1 + 2 + 3 + 4 +

D --------0---------------0---------------0---------------0------
A ------------0---------------0---------------0---------------0--
G ----0---------------0---------------0---------------0----------
D 5---------------5---------------5---------------5--------------
A 5---------------5---------------5---------------5--------------
D 5---------------5---------------4- -------------4--------------
 A walk on the water yea


 29 30 31 32
 1 + 2 + 3 + 4 + 1 + 2 + 3 + 4 + 1 + 2 + 3 + 4 + 1 + 2 + 3 + 4 +
h = hammer on
D --------0-------------------------------0----------------------
A ------------0-------------------------------0------------------
G ----0---------------------------------------------------------
D 2---------------2----------------2--------------2-------2------
A 2---------------------------0-h-2---------------2--------------
D 2-------------------------------2---------------2--------------
 and hold it in your hand
Run Up
s= slide
 33 34 35 36
 1 + 2 + 3 + 4 + 1 + 2 + 3 + 4 + 1 + 2 + 3 + 4 + 1 + 2 + 3 + 4 +
D 2---------------s---4-----------s----5----------s---7----------
A ---------------------------------------------------------------
G ---------------------------------------------------------------
D 2---------------s---4-----------s----5----------s---7----------
A ---------------------------------------------------------------
D ---------------------------------- ----------------------------

VERSE
 37 38 39 40
 1 + 2 + 3 + 4 + 1 + 2 + 3 + 4 + 1 + 2 + 3 + 4 + 1 + 2 + 3 + 4 +
D ---------------------------------------------------------------
A ---------------------------------------------------------------
G 7---------------7---------------4---------------2--------------
D 7---------------7---------------4---------------2--------------
A 5---------------4---------------2------------------------------
D ---------------------------------------------------------------
 I've been taking photographs today
 41 42 43 44
 1 + 2 + 3 + 4 + 1 + 2 + 3 + 4 + 1 + 2 + 3 + 4 + 1 + 2 + 3 + 4 +
D ---------------------------------------------------------------
A ---------------------------------------------------------------
G ---------------------------------------------------------------
D 5---------------5---------------2---------------2--------------
A 5---------------5---------------2---------------2--------------
D 5---------------4---------------2---------------2--------------
 I must have photographed a hundred waves

 45 46 47 48
 1 + 2 + 3 + 4 + 1 + 2 + 3 + 4 + 1 + 2 + 3 + 4 + 1 + 2 + 3 + 4 +
D ---------------------------------------------------------------
A ---------------------------------------------------------------
G 7---------------7---------------4---------------2--------------
D 7---------------7---------------4---------------2--------------
A 5---------------4---------------2------------------------------
D ---------------------------------------------------------------
 And every time the shutter clicks
 49 50 51 52
 1 + 2 + 3 + 4 + 1 + 2 + 3 + 4 + 1 + 2 + 3 + 4 + 1 + 2 + 3 + 4 +
D ---------------------------------------------------------------
A ---------------------------------------------------------------
G ---------------------------------------------------------------
D 5---------------5---------------2---------------2--------------
A 5---------------5---------------2---------------2-----------0-h
D 5---------------4---------------2---------------2--------------
 It locks the picture right away

 53 54
 1 + 2 + 3 + 4 + 1 + 2 + 3 + 4 +
D --------------------------------
A --------------------------------
G --------------------------------
D 2---------------2---------------
A 2---------------2---------------
D 2---------------2---------------

Repeat from measure 37

Sometimes I know I think to much,
I think so much I just lose touch,
With whatevers going down today,

Chorus Pattern
 1 + 2 + 3 + 4 + 1 + 2 + 3 + 4 + 1 + 2 + 3 + 4 + 1 + 2 + 3 + 4 +

D --------0---------------0---------------0---------------0------
A ------------0---------------0---------------0---------------0--
G ----0---------------0---------------0---------------0----------
D 5---------------5---------------5---------------5--------------
A 5---------------5---------------5---------------5--------------
D 5---------------5---------------4- -------------4--------------
 But I have seen so many of
you

 1 + 2 + 3 + 4 + 1 + 2 + 3 + 4 + 1 + 2 + 3 + 4 + 1 + 2 + 3 + 4 +

D --------0---------------0---------------0---------------0------
A ------------0---------------0---------------0---------------0--
G ----0---------------0---------------0---------------0----------
D 2---------------2---------------5---------------5--------------
A 2---------------2---------------5---------------5--------------
D 2---------------2---------------4- -------------4--------------
 Walking on the water

 1 + 2 + 3 + 4 + 1 + 2 + 3 + 4 + 1 + 2 + 3 + 4 + 1 + 2 + 3 + 4 +

D --------0---------------0---------------0---------------0------
A ------------0---------------0---------------0---------------0--
G ----0---------------0---------------0---------------0----------
D 5---------------5---------------5---------------5--------------
A 5---------------5---------------5---------------5--------------
D 5---------------5---------------4- -------------4--------------
 And I know where it is I wanna
be

 1 + 2 + 3 + 4 + 1 + 2 + 3 + 4 + 1 + 2 + 3 + 4 + 1 + 2 + 3 + 4 +
h = hammer on
D --------0-------------------------------0----------------------
A ------------0-------------------------------0------------------
G ----0---------------------------------------------------------
D 2---------------2----------------2--------------2-------2------
A 2---------------------------0-h-2---------------2--------------
D 2-------------------------------2---------------2--------------
 Walking out there with you on the sea

Repeat 1st Chorus


Walk On Water