´╗┐ c | cinderella | heartbreak station tab online player | |


  
#-----------------------------PLEASE NOTE-------------------------------------#
#This OLGA file is the author's own work and represents their interpretation  #
#of the song. You may only use this file for private study, scholarship, or   #
#research. Remember to view this file in Courier, or some other monospaced    #
#font. See http://www.olga.net/faq/ for more information.                     #
#-----------------------------------------------------------------------------#

Date: Mon, 06 Dec 93 13:07:28 GMT
From: Dirt Bird 
Date: Tue, 16 Mar 2004 12:15:29 -0800 (PST)
From: Tom Mc Nally 
Subject: c/cinderella/heartbreak_station.tab


Heartbreak Station by Cinderella
Includes both guitar parts plus solo
Bass tab separate
Played on a 12 string acoustic
Intro
      G                                                  
E||---------------3-----------|--------------3-----------|
B||---------------------------|--------------------------|
G||*--------0-----------------|--------0-----------------|
D||*-----0-----0-----0--------|-----0-----0-----0--------|
A||---------------------0--2--|--3-----------------------|
E||---3-----------------------|--------------------0--3--|

                                                       x1            
G        
--------------------------|----------------------------||-----------3--------|
--------------------------|----------------------------||-----------3--------|
--------2-----------2-----|--------0--------0---------*||-----------0--------|
--------------0-----------|-----0--------0---------0--*||-----------0--------|
-----0-----0-----0-----0--|--3--------2--------0h2-----||-----------2--------|
--2-----------------------|----------------------------||--3--------3--------|

  D        D  Dsus                Em                   D        
-----------2h-3h-2----|-----------0--------|-----------2--------|
-----------3----------|-----------0--------|-----------3--------|
-----------2----------|-----------0--------|-----------2--------|
--0--------0----------|-----------2--------|--0--------0--------|
----------------------|--2--------2--------|--------------------|
----------------------|--0--------0--------|--------------------|

  C        C           D        D           G        G        
-----------0--------|-----------2--------|-----------3--------|
-----------1--------|-----------3--------|-----------3--------|
-----------0--------|-----------2--------|-----------0--------|
-----------2--------|--0--------0--------|-----------0--------|
--3--------3--------|--------------------|--2--------2--------|
--------------------|--------------------|--3--------3--------|

  D                            G           D        D          
--2----------------|-----------3--------|-----------2h-3h-2----|
--3----------------|-----------3--------|-----------3----------|
--2----------------|-----------0--------|-----------2----------|
--0----------------|-----------0--------|--0--------0----------|
-------------------|-----------2--------|----------------------|
-------------------|--3--------3--------|----------------------|

           Em                   D           C        C        
-----------0--------|-----------2--------|-----------0--------|
-----------0--------|-----------3--------|-----------1--------|
-----------0--------|-----------2--------|-----------0--------|
-----------2--------|--0--------0--------|-----------2--------|
--2--------2--------|--------------------|--3--------3--------|
--0--------0--------|--------------------|--------------------|
                                          Pre-Chorus
  D        D           G        G           D        D         
-----------2--------|-----------3--------|-----------2---------|
-----------3--------|-----------3--------|-----------3------3--|
-----------2--------|-----------0--------|-----------2---------|
--0--------0--------|-----------0--------|--0--------0---------|
--------------------|--2--------2--------|---------------------|
--------------------|--3--------3--------|---------------------|
                          Chorus
                            Em       Em          C        C        
--3--------2-------------|--0--------0--------|--0--------0--------|
-----3----------3--------|--0--------0--------|--1--------1--------|
--------2----------2-----|--0--------0--------|--0--------0--------|
----------------------0--|--2--------2--------|--2--------2--------|
-------------------------|--2--------2--------|--3--------3--------|
-------------------------|--0--------0--------|--------------------|

  G        G           D        D           Em       Em       
--3--------3--------|--2--------2--------|--0--------0--------|
--3--------3--------|--3--------3--------|--0--------0--------|
--0--------0--------|--2--------2--------|--0--------0--------|
--0--------0--------|--0--------0--------|--2--------2--------|
--2--------2--------|--------------------|--2--------2--------|
--3--------3--------|--------------------|--0--------0--------|

  C        C           G        G           D        D        
--0--------0--------|--3--------3--------|--2--------2--------|
--1--------1--------|--3--------3--------|--3--------3--------|
--0--------0--------|--0--------0--------|--2--------2--------|
--2--------2--------|--0--------0--------|--0--------0--------|
--3--------3--------|--2--------2--------|--------------------|
--------------------|--3--------3--------|--------------------|

  Em       Em           C                                           
--0--------0---------|--0----------------|--------------3-----------|
--0--------0---------|--1----------------|--------------------------|
--0--------0---------|--0----------------|--------0-----------------|
--2--------2---------|--2----------------|-----0-----0-----0--------|
--2--------2---------|--3----------------|--------------------0--2--|
--0--------0----2----|--3----------------|--3-----------------------|

                                                     
--------------3-----------|--------------------------|
--------------------------|--------------------------|
--------0-----------------|--------2-----------2-----|
-----0-----0-----0--------|--------------0-----------|
--3-----------------------|-----0-----0-----0-----0--|
--------------------0--3--|--2-----------------------|

                                                      
---------------------------|--------------3-----------|
---------------------------|--------------------------|
--------0--------0---------|--------0-----------------|
-----0--------0---------0--|-----0-----0-----0--------|
--3--------2--------0h2----|--------------------0--2--|
---------------------------|--3-----------------------|

                                                     
--------------3-----------|--------------------------|
--------------------------|--------------------------|
--------0-----------------|--------2-----------2-----|
-----0-----0-----0--------|--------------0-----------|
--3-----------------------|-----0-----0-----0-----0--|
--------------------0--3--|--2-----------------------|

                                       G           D        D          
---------------------------|-----------3--------|-----------2--3--2----|
---------------------------|-----------3--------|-----------3----------|
--------0--------0---------|-----------0--------|-----------2----------|
-----0--------0---------0--|-----------0--------|--0--------0----------|
--3--------2--------0h2----|-----------2--------|----------------------|
---------------------------|--3--------3--------|----------------------|

           Em                   D           C        C        
-----------0--------|-----------2--------|-----------0--------|
-----------0--------|-----------3--------|-----------1--------|
-----------0--------|-----------2--------|-----------0--------|
-----------2--------|--0--------0--------|-----------2--------|
--2--------2--------|--------------------|--3--------3--------|
--0--------0--------|--------------------|--------------------|

  D        D           G        G           D                
-----------2--------|-----------3--------|--2----------------|
-----------3--------|-----------3--------|--3----------------|
-----------2--------|-----------0--------|--2----------------|
--0--------0--------|-----------0--------|--0----------------|
--------------------|--2--------2--------|-------------------|
--------------------|--3--------3--------|-------------------|

           G           D        D                      Em       
-----------3--------|-----------2--3--2----|-----------0--------|
-----------3--------|-----------3----------|-----------0--------|
-----------0--------|-----------2----------|-----------0--------|
-----------0--------|--0--------0----------|-----------2--------|
-----------2--------|----------------------|--2--------2--------|
--3--------3--------|----------------------|--0--------0--------|

           D           C        C           D        D        
-----------2--------|-----------0--------|-----------2--------|
-----------3--------|-----------1--------|-----------3--------|
-----------2--------|-----------0--------|-----------2--------|
--0--------0--------|-----------2--------|--0--------0--------|
--------------------|--3--------3--------|--------------------|
--------------------|--------------------|--------------------|

  G        G           D                                          
-----------3--------|--2----------------|--3--------2-------------|
-----------3--------|--3----------------|-----3----------3--------|
-----------0--------|--2----------------|--------2----------2-----|
-----------0--------|--0----------------|----------------------0--|
--2--------2--------|-------------------|-------------------------|
--3--------3--------|-------------------|-------------------------|

  Em       Em          C        C           G        G        
--0--------0--------|--0--------0--------|--3--------3--------|
--0--------0--------|--1--------1--------|--3--------3--------|
--0--------0--------|--0--------0--------|--0--------0--------|
--2--------2--------|--2--------2--------|--0--------0--------|
--2--------2--------|--3--------3--------|--2--------2--------|
--0--------0--------|--------------------|--3--------3--------|

  D        D           Em       Em          C        C        
--2--------2--------|--0--------0--------|--0--------0--------|
--3--------3--------|--0--------0--------|--1--------1--------|
--2--------2--------|--0--------0--------|--0--------0--------|
--0--------0--------|--2--------2--------|--2--------2--------|
--------------------|--2--------2--------|--3--------3--------|
--------------------|--0--------0--------|--------------------|

  G        G           D        D           Em       Em        
--3--------3--------|--2--------2--------|--0--------0---------|
--3--------3--------|--3--------3--------|--0--------0---------|
--0--------0--------|--2--------2--------|--0--------0---------|
--0--------0--------|--0--------0--------|--2--------2---------|
--2--------2--------|--------------------|--2--------2---------|
--3--------3--------|--------------------|--0--------0----2----|

  C                   D        D                                   
--0----------------|--2--------2---------|--3--------2-------------|
--1----------------|--3--------3------3--|-----3----------3--------|
--0----------------|--2--------2---------|--------2----------2-----|
--2----------------|--0--------0---------|----------------------0--|
--3----------------|---------------------|-------------------------|
--3----------------|---------------------|-------------------------|
Bridge
  Bm       Bm          G        G           D        D        
--2--------2--------|--3--------3--------|--2--------2--------|
--3--------3--------|--3--------3--------|--3--------3--------|
--4--------4--------|--0--------0--------|--2--------2--------|
--4--------4--------|--0--------0--------|--0--------0--------|
--2--------2--------|--2--------2--------|--------------------|
--------------------|--3--------3--------|--------------------|
                                          Solo
  A        A           A        A           Em       Em       
--0--------0--------|--0--------0--------|--0--------0--------|
--2--------2--------|--2--------2--------|--0--------0--------|
--2--------2--------|--2--------2--------|--0--------0--------|
--2--------2--------|--2--------2--------|--2--------2--------|
--------------------|--------------------|--2--------2--------|
--------------------|--------------------|--0--------0--------|

  C        C           G        G           D        D        
--0--------0--------|--3--------3--------|--2--------2--------|
--1--------1--------|--3--------3--------|--3--------3--------|
--0--------0--------|--0--------0--------|--2--------2--------|
--2--------2--------|--0--------0--------|--0--------0--------|
--3--------3--------|--2--------2--------|--------------------|
--------------------|--3--------3--------|--------------------|

  Em       Em          C        C           G        G        
--0--------0--------|--0--------0--------|--3--------3--------|
--0--------0--------|--1--------1--------|--3--------3--------|
--0--------0--------|--0--------0--------|--0--------0--------|
--2--------2--------|--2--------2--------|--0--------0--------|
--2--------2--------|--3--------3--------|--2--------2--------|
--0--------0--------|--------------------|--3--------3--------|

  D        D           Em       Em           C                
--2--------2--------|--0--------0---------|--0----------------|
--3--------3--------|--0--------0---------|--1----------------|
--2--------2--------|--0--------0---------|--0----------------|
--0--------0--------|--2--------2---------|--2----------------|
--------------------|--2--------2---------|--3----------------|
--------------------|--0--------0----2----|--3----------------|

                                                                          
--------------3---------|--------------3---------|------------------------|
------------------------|------------------------|------------------------|
--------0---------------|--------0---------------|--------2---------------|
-----0-----0-----0------|-----0-----0-----0------|--------------0---------|
------------------------|--3---------------------|-----0-----0-----0------|
--3---------------------|------------------------|--2---------------------|

                                                                          
------------------------|--------------3---------|--------------3---------|
------------------------|------------------------|------------------------|
--------0--------0------|--------0---------------|--------0---------------|
-----0--------0---------|-----0-----0-----0------|-----0-----0-----0------|
--3--------2------------|------------------------|--3---------------------|
------------------------|--3---------------------|------------------------|

                                                        Em      
Em       
-------------------------|---------------------------|--0--------0--------|
-------------------------|---------------------------|--0--------0--------|
--------2-----------2----|--------0--------0---------|--0--------0--------|
--------------0----------|-----0--------0---------0--|--2--------2--------|
-----0-----0-----0-------|--3--------2--------0h2----|--2--------2--------|
--2----------------------|---------------------------|--0--------0--------|

  C        C           G        G           D        D        
--0--------0--------|--3--------3--------|--2--------2--------|
--1--------1--------|--3--------3--------|--3--------3--------|
--0--------0--------|--0--------0--------|--2--------2--------|
--2--------2--------|--0--------0--------|--0--------0--------|
--3--------3--------|--2--------2--------|--------------------|
--------------------|--3--------3--------|--------------------|

  Em       Em          C        C           G        G        
--0--------0--------|--0--------0--------|--3--------3--------|
--0--------0--------|--1--------1--------|--3--------3--------|
--0--------0--------|--0--------0--------|--0--------0--------|
--2--------2--------|--2--------2--------|--0--------0--------|
--2--------2--------|--3--------3--------|--2--------2--------|
--0--------0--------|--------------------|--3--------3--------|

  D        D           Em       Em           C                 
--2--------2--------|--0--------0---------|--0--------0--------|
--3--------3--------|--0--------0---------|--1--------1--------|
--2--------2--------|--0--------0---------|--0--------0--------|
--0--------0--------|--2--------2---------|--2--------2--------|
--------------------|--2--------2---------|--3--------3--------|
--------------------|--0--------0----2----|--3--------3--------|

  D        D                                      Em       Em       
--2--------2---------|--3--------2-------------|--0--------0--------|
--3--------3------3--|-----3----------3--------|--0--------0--------|
--2--------2---------|--------2----------2-----|--0--------0--------|
--0--------0---------|----------------------0--|--2--------2--------|
---------------------|-------------------------|--2--------2--------|
---------------------|-------------------------|--0--------0--------|

  C        C           G        G           D        D        
--0--------0--------|--3--------3--------|--2--------2--------|
--1--------1--------|--3--------3--------|--3--------3--------|
--0--------0--------|--0--------0--------|--2--------2--------|
--2--------2--------|--0--------0--------|--0--------0--------|
--3--------3--------|--2--------2--------|--------------------|
--------------------|--3--------3--------|--------------------|

  Em       Em          C        C           G        G        
--0--------0--------|--0--------0--------|--3--------3--------|
--0--------0--------|--1--------1--------|--3--------3--------|
--0--------0--------|--0--------0--------|--0--------0--------|
--2--------2--------|--2--------2--------|--0--------0--------|
--2--------2--------|--3--------3--------|--2--------2--------|
--0--------0--------|--------------------|--3--------3--------|

  D        D           Em       Em           C                
--2--------2--------|--0--------0---------|--0----------------|
--3--------3--------|--0--------0---------|--1----------------|
--2--------2--------|--0--------0---------|--0----------------|
--0--------0--------|--2--------2---------|--2----------------|
--------------------|--2--------2---------|--3----------------|
--------------------|--0--------0----2----|--3----------------|

 Outro  Gradual slow                                                    
--------------3-----------|--------------3-----------|
--------------------------|--------------------------|
--------0-----------------|--------0-----------------|
-----0-----0-----0--------|-----0-----0-----0--------|
--------------------0--2--|--3-----------------------|
--3-----------------------|--------------------0--3--|

                                                      
--------------------------|---------------------------|
--------------------------|---------------------------|
--------2-----------2-----|--------0--------0---------|
--------------0-----------|-----0--------0---------0--|
-----0-----0-----0-----0--|--3--------2--------0h2----|
--2-----------------------|---------------------------|

                                                     
--------------3-----------|--------------3-----------|
--------------------------|--------------------------|
--------0-----------------|--------0-----------------|
-----0-----0-----0--------|-----0-----0-----0--------|
--------------------0--2--|--3-----------------------|
--3-----------------------|--------------------0--3--|

                                                       
G                 
--------------------------|--------------------------|-------------------||
--------------------------|--------------------------|-------------------||
--------2-----------2-----|--------0--------0--------|--0----------------||
--------------0-----------|-----0--------0--------0--|--0----------------||
-----0-----0-----0-----0--|--3--------2--------0-----|--x----------------||
--2-----------------------|--------------------------|--3----------------||
                   
Guitar 2
 
                                                            
E||-------|------|------|-------||--------------3-----------|
B||-------|------|------|-------||-----------------3--------|
G||*------|------|------|------*||--------0-----------------|
D||*------|------|------|------*||-----0-----0--------------|
A||-------|------|------|-------||--------------------0--2--|
E||-------|------|------|-------||--3-----------------------|

                                                     
--------------2-----------|--------------0-----------|
--------3--------3-----3--|--------0--------0-----0--|
-----------2--------2-----|-----------0--------0-----|
-----0--------------------|-----2--------------------|
--3-----------------------|--2-----------------------|
--------------------0--3--|--------------------------|

                                                     
--------------3-----------|--------------------------|
--------3--------0--------|--------------1-----------|
-----2-----2--------------|--------0--------0-----0--|
--0-----------------------|-----2-----2--------2-----|
--------------------0--2--|--3-----------------------|
--------------------------|--------------------------|

                                                     
--------------2-----------|--------------3-----------|
--------3--------3-----3--|-----------------3--------|
-----2-----2--------2-----|--------0-----------------|
--0-----------------------|-----0-----0--------------|
--------------------------|--------------------0--2--|
--------------------------|--3-----------------------|

                                                     
--------------2-----------|--------------3-----------|
--------3--------3-----3--|-----------------3--------|
-----2-----2--------2-----|--------0-----------------|
--0-----------------------|-----0-----0--------------|
--------------------------|--------------------0--2--|
--------------------------|--3-----------------------|

                                                     
--------------2-----------|--------------0-----------|
--------3--------3-----3--|--------0--------0-----0--|
-----------2--------2-----|-----------0--------0-----|
-----0--------------------|-----2--------------------|
--3-----------------------|--2-----------------------|
--------------------0--3--|--------------------------|

                                                     
--------------3-----------|--------------------------|
--------3--------0--------|--------------1-----------|
-----2-----2--------------|--------0--------0-----0--|
--0-----------------------|-----2-----2--------2-----|
--------------------0--2--|--3-----------------------|
--------------------------|--------------------------|

                                                     
--------------2-----------|--------------3-----------|
--------3--------3-----3--|-----------------3--------|
-----2-----2--------2-----|--------0-----------------|
--0-----------------------|-----0-----0--------------|
--------------------------|--------------------0--2--|
--------------------------|--3-----------------------|

                                                            
--------------2-----------|------|--------------0-----------|
--------3--------3-----3--|------|--------0--------0-----0--|
-----2-----2--------2-----|------|-----------0--------0-----|
--0-----------------------|------|-----2--------------------|
--------------------------|------|--2-----------------------|
--------------------------|------|--------------------------|

                                                     
--------------------------|--------------3-----------|
--------------1-----------|-----------------3--------|
--------0--------0-----0--|--------0-----------------|
-----2-----2--------2-----|-----0-----0--------------|
--3-----------------------|--------------------0--2--|
--------------------------|--3-----------------------|

                                                     
--------------2-----------|--------------0-----------|
--------3--------3-----3--|--------0--------0-----0--|
-----2-----2--------2-----|-----------0--------0-----|
--0-----------------------|-----2--------------------|
--------------------------|--2-----------------------|
--------------------------|--------------------------|

                                                     
--------------------------|--------------3-----------|
--------------1-----------|-----------------3--------|
--------0--------0-----0--|--------0-----------------|
-----2-----2--------2-----|-----0-----0--------------|
--3-----------------------|--------------------0--2--|
--------------------------|--3-----------------------|

                                                                         
--------------2-----------|--------------0-----------|-------------------|
--------3--------3-----3--|--------0--------0-----0--|-------------------|
-----2-----2--------2-----|-----------0--------0-----|-------------------|
--0-----------------------|-----2--------------------|-------------------|
--------------------------|--2-----------------0--2--|--3----------------|
--------------------------|--------------------------|-------------------|

                                                       
------|------|------|------|------|------|------|------|
------|------|------|------|------|------|------|------|
------|------|------|------|------|------|------|------|
------|------|------|------|------|------|------|------|
------|------|------|------|------|------|------|------|
------|------|------|------|------|------|------|------|

                                                     
--------------3-----------|--------------2-----------|
-----------------3--------|--------3--------3-----3--|
--------0-----------------|-----------2--------2-----|
-----0-----0--------------|-----0--------------------|
--------------------0--2--|--3-----------------------|
--3-----------------------|--------------------0--3--|

                                                     
--------------0-----------|--------------3-----------|
--------0--------0-----0--|--------3--------0--------|
-----------0--------0-----|-----2-----2--------------|
-----2--------------------|--0-----------------------|
--2-----------------------|--------------------0--2--|
--------------------------|--------------------------|

                                                     
--------------------------|--------------2-----------|
--------------1-----------|--------3--------3-----3--|
--------0--------0-----0--|-----2-----2--------2-----|
-----2-----2--------2-----|--0-----------------------|
--3-----------------------|--------------------------|
--------------------------|--------------------------|

                                                     
--------------3-----------|--------------2-----------|
-----------------3--------|--------3--------3-----3--|
--------0-----------------|-----2-----2--------2-----|
-----0-----0--------------|--0-----------------------|
--------------------0--2--|--------------------------|
--3-----------------------|--------------------------|

                                                     
--------------3-----------|--------------2-----------|
-----------------3--------|--------3--------3-----3--|
--------0-----------------|-----------2--------2-----|
-----0-----0--------------|-----0--------------------|
--------------------0--2--|--3-----------------------|
--3-----------------------|--------------------0--3--|

                                                     
--------------0-----------|--------------3-----------|
--------0--------0-----0--|--------3--------0--------|
-----------0--------0-----|-----2-----2--------------|
-----2--------------------|--0-----------------------|
--2-----------------------|--------------------0--2--|
--------------------------|--------------------------|

                                                     
--------------------------|--------------2-----------|
--------------1-----------|--------3--------3-----3--|
--------0--------0-----0--|-----2-----2--------2-----|
-----2-----2--------2-----|--0-----------------------|
--3-----------------------|--------------------------|
--------------------------|--------------------------|

                                                            
--------------3-----------|--------------2-----------|------|
-----------------3--------|--------3--------3-----3--|------|
--------0-----------------|-----2-----2--------2-----|------|
-----0-----0--------------|--0-----------------------|------|
--------------------0--2--|--------------------------|------|
--3-----------------------|--------------------------|------|

                                                     
--------------0-----------|--------------------------|
--------0--------0-----0--|--------------1-----------|
-----------0--------0-----|--------0--------0-----0--|
-----2--------------------|-----2-----2--------2-----|
--2-----------------------|--3-----------------------|
--------------------------|--------------------------|

                                                     
--------------3-----------|--------------2-----------|
-----------------3--------|--------3--------3-----3--|
--------0-----------------|-----2-----2--------2-----|
-----0-----0--------------|--0-----------------------|
--------------------0--2--|--------------------------|
--3-----------------------|--------------------------|

                                                     
--------------0-----------|--------------------------|
--------0--------0-----0--|--------------1-----------|
-----------0--------0-----|--------0--------0-----0--|
-----2--------------------|-----2-----2--------2-----|
--2-----------------------|--3-----------------------|
--------------------------|--------------------------|

                                                     
--------------3-----------|--------------2-----------|
-----------------3--------|--------3--------3-----3--|
--------0-----------------|-----2-----2--------2-----|
-----0-----0--------------|--0-----------------------|
--------------------0--2--|--------------------------|
--3-----------------------|--------------------------|

                                                     
--------------0-----------|--------------------------|
--------0--------0-----0--|--------------1-----------|
-----------0--------0-----|--------0--------0-----0--|
-----2--------------------|-----2-----2--------2-----|
--2-----------------0--2--|--3-----------------------|
--------------------------|--------------------------|

                                                       
Bridge                 
--------------2-----------|--3--------2-------------|--------------2-----------|

--------3--------3-----3--|-----3----------3--------|-----------------3-----3--|

-----2-----2--------2-----|--------2----------2-----|--------4-----------4-----|

--0-----------------------|----------------------0--|-----4-----4--------------|

--------------------------|-------------------------|--2-----------------------|

--------------------------|-------------------------|--------------------------|

                                                     
--------------3-----------|--------------2-----------|
-----------------3-----3--|--------3--------3-----3--|
--------0-----------0-----|-----2-----2--------2-----|
-----0-----0--------------|--0-----------------------|
--------------------------|--------------------------|
--3-----------------------|--------------------------|

                                                     
--------------------------|--------------------------|
--------------2-----------|--3--------0-----2--------|
--------2--------2-----2--|--------2-----------------|
-----2-----2--------2-----|-----2--------2-----0--2--|
--0-----------------------|--------------------------|
--------------------------|--------------------------|

Solo                                                
--------------0-----------|--------------------------|
--------0--------0-----0--|--------------1-----------|
-----------0--------0-----|--------0--------0-----0--|
-----2--------------------|-----2-----2--------2-----|
--2-----------------------|--3-----------------------|
--------------------------|--------------------------|

                                                     
--------------3-----------|--------------2-----------|
-----------------3--------|--------3--------3-----3--|
--------0-----------------|-----2-----2--------2-----|
-----0-----0--------------|--0-----------------------|
--------------------0--2--|--------------------------|
--3-----------------------|--------------------------|

                                                     
--------------0-----------|--------------------------|
--------0--------0-----0--|--------------1-----------|
-----------0--------0-----|--------0--------0-----0--|
-----2--------------------|-----2-----2--------2-----|
--2-----------------------|--3-----------------------|
--------------------------|--------------------------|

                                                     
--------------3-----------|--------------2-----------|
-----------------3--------|--------3--------3-----3--|
--------0-----------------|-----2-----2--------2-----|
-----0-----0--------------|--0-----------------------|
--------------------0--2--|--------------------------|
--3-----------------------|--------------------------|

                                                                          
--------------0-----------|-------------------|------|------|------|------|
--------0--------0-----0--|-------------------|------|------|------|------|
-----------0--------0-----|-------------------|------|------|------|------|
-----2--------------------|-------------------|------|------|------|------|
--2-----------------0--2--|--3----------------|------|------|------|------|
--------------------------|-------------------|------|------|------|------|

                                                      
------|------|------|------|--------------0-----------|
------|------|------|------|--------0--------0-----0--|
------|------|------|------|-----------0--------0-----|
------|------|------|------|-----2--------------------|
------|------|------|------|--2-----------------------|
------|------|------|------|--------------------------|

                                                     
--------------------------|--------------3-----------|
--------------1-----------|-----------------3--------|
--------0--------0-----0--|--------0-----------------|
-----2-----2--------2-----|-----0-----0--------------|
--3-----------------------|--------------------0--2--|
--------------------------|--3-----------------------|

                                                     
--------------2-----------|--------------0-----------|
--------3--------3-----3--|--------0--------0-----0--|
-----2-----2--------2-----|-----------0--------0-----|
--0-----------------------|-----2--------------------|
--------------------------|--2-----------------------|
--------------------------|--------------------------|

                                                     
--------------------------|--------------3-----------|
--------------1-----------|-----------------3--------|
--------0--------0-----0--|--------0-----------------|
-----2-----2--------2-----|-----0-----0--------------|
--3-----------------------|--------------------0--2--|
--------------------------|--3-----------------------|

                                                     
--------------2-----------|--------------0-----------|
--------3--------3-----3--|--------0--------0-----0--|
-----2-----2--------2-----|-----------0--------0-----|
--0-----------------------|-----2--------------------|
--------------------------|--2-----------------0--2--|
--------------------------|--------------------------|

                                                                   
--------------------------|------|------|--------------0-----------|
--------------1-----------|------|------|--------0--------0-----0--|
--------0--------0-----0--|------|------|-----------0--------0-----|
-----2-----2--------2-----|------|------|-----2--------------------|
--3-----------------------|------|------|--2-----------------------|
--------------------------|------|------|--------------------------|

                                                     
--------------------------|--------------3-----------|
--------------1-----------|-----------------3--------|
--------0--------0-----0--|--------0-----------------|
-----2-----2--------2-----|-----0-----0--------------|
--3-----------------------|--------------------0--2--|
--------------------------|--3-----------------------|

                                                     
--------------2-----------|--------------0-----------|
--------3--------3-----3--|--------0--------0-----0--|
-----2-----2--------2-----|-----------0--------0-----|
--0-----------------------|-----2--------------------|
--------------------------|--2-----------------------|
--------------------------|--------------------------|

                                                     
--------------------------|--------------3-----------|
--------------1-----------|-----------------3--------|
--------0--------0-----0--|--------0-----------------|
-----2-----2--------2-----|-----0-----0--------------|
--3-----------------------|--------------------0--2--|
--------------------------|--3-----------------------|

                                                                         
--------------2-----------|--------------0-----------|-------------------|
--------3--------3-----3--|--------0--------0-----0--|-------------------|
-----2-----2--------2-----|-----------0--------0-----|-------------------|
--0-----------------------|-----2--------------------|-------------------|
--------------------------|--2-----------------0--2--|--3----------------|
--------------------------|--------------------------|-------------------|

                                                               
------|------|------|------|------|------|------|------|------||
------|------|------|------|------|------|------|------|------||
------|------|------|------|------|------|------|------|------||
------|------|------|------|------|------|------|------|------||
------|------|------|------|------|------|------|------|------||
------|------|------|------|------|------|------|------|------||

Guitar Solo
 
                                                                    
|-------------------|
|--------------0/---|
|-------------------|
|-------------------|
|-------------------|
|-------------------|

                                                                  
--------------------|---------------------|-----------------------|
--8------------8b---|--8------------5--8--|--5--3----------5--12--|
--------------------|---------------------|-----------------------|
--------------------|---------------------|-----------------------|
--------------------|---------------------|-----------------------|
--------------------|---------------------|-----------------------|

                                                                 
---------------------|-------------7b---7r-|-------------7b---7r-|
--10------------0/---|--8------------------|--8------------------|
---------------------|---------------------|---------------------|
---------------------|---------------------|---------------------|
---------------------|---------------------|---------------------|
---------------------|---------------------|---------------------|

                                                                 
-------------8--7-----|--5-----------------|-------------5r------|
--8----------------8--|---------------0/---|--8---------------7b-|
----------------------|--------------------|---------------------|
----------------------|--------------------|---------------------|
----------------------|--------------------|---------------------|
----------------------|--------------------|---------------------|

                       LetRing---------------------->                                                     
 
--------------------|-------------------|------------------|------------------|
--8------------0/---|--8----------------|------------------|------------------|
--------------------|-------------------|------------------|------------------|
--------------------|-------------------|------------------|------------------|
--------------------|-------------------|------------------|------------------|
--------------------|-------------------|------------------|------------------|

                                                                            
------|------|------|------|------|------|------|------|------|------|------|
------|------|------|------|------|------|------|------|------|------|------|
------|------|------|------|------|------|------|------|------|------|------|
------|------|------|------|------|------|------|------|------|------|------|
------|------|------|------|------|------|------|------|------|------|------|
------|------|------|------|------|------|------|------|------|------|------|

                                          Played over 2nd chorus after
solo                    
------|------|------|------|------|------|--------------------|
------|------|------|------|------|------|--8------------8b---|
------|------|------|------|------|------|--------------------|
------|------|------|------|------|------|--------------------|
------|------|------|------|------|------|--------------------|
------|------|------|------|------|------|--------------------|

                                                                   
---------------------|-----------------------|---------------------|
--8------------5--8--|--5--3----------5--12--|--10------------0/---|
---------------------|-----------------------|---------------------|
---------------------|-----------------------|---------------------|
---------------------|-----------------------|---------------------|
---------------------|-----------------------|---------------------|

                                                                  
-------------7b---7r-|-------------7b---7r-|-------------8--7-----|
--8------------------|--8------------------|--8----------------8--|
---------------------|---------------------|----------------------|
---------------------|---------------------|----------------------|
---------------------|---------------------|----------------------|
---------------------|---------------------|----------------------|

                                                               
--5-----------------|-------------5r------|--------------------|
---------------0/---|--8---------------7b-|--8------------0/---|
--------------------|---------------------|--------------------|
--------------------|---------------------|--------------------|
--------------------|---------------------|--------------------|
--------------------|---------------------|--------------------|

                                                                              
-------------------|------------------|------------------|------|------|------|
--8----------------|------------------|------------------|------|------|------|
-------------------|------------------|------------------|------|------|------|
-------------------|------------------|------------------|------|------|------|
-------------------|------------------|------------------|------|------|------|
-------------------|------------------|------------------|------|------|------|

                     
------|------|------||
------|------|------||
------|------|------||
------|------|------||
------|------|------||
------|------|------||
 
 
Enjoy!

Christian Knight (dirk_gently_24@yahoo.com)
http://www.geocities.com/the80ssociety