´╗┐ c | cinderella | heartbreak station btab online player | |


  
#-----------------------------PLEASE NOTE-------------------------------------#
#This OLGA file is the author's own work and represents their interpretation  #
#of the song. You may only use this file for private study, scholarship, or   #
#research. Remember to view this file in Courier, or some other monospaced    #
#font. See http://www.olga.net/faq/ for more information.                     #
#-----------------------------------------------------------------------------#

Date: Tue, 16 Mar 2004 12:18:10 -0800 (PST)
From: Tom Mc Nally 
Subject: c/cinderella/heartbreak_station.btab


Heartbreak Station by Cinderella                              

Bass tab
 
                                                                           
G||-------|------|------|-------||------|------|------|------|------|------|
D||*------|------|------|------*||------|------|------|------|------|------|
A||*------|------|------|------*||------|------|------|------|------|------|
E||-------|------|------|-------||------|------|------|------|------|------|

                                                                            
------|------|------|------|------|------|------|------|------|------|------|
------|------|------|------|------|------|------|------|------|------|------|
------|------|------|------|------|------|------|------|------|------|------|
------|------|------|------|------|------|------|------|------|------|------|

                                                              
--------------------|--------------------|--------------------|
--------------------|--------------------|--------------------|
--------------------|--3--------3--------|--------------------|
--0--------0--------|--------------------|--3--------3--------|

                                                              
--------------------|--------------------|--------------------|
--0--------0--------|--------------------|--------------------|
--------------------|--------------------|--3--------3--------|
--------------------|--0--------0--------|--------------------|

                                                               
--------------------|--------------------|---------------------|
--------------------|--0--------0--------|---------------------|
--------------------|--------------------|---------------------|
--3--------3--------|--------------------|--0--------0----2----|

                                                                    
-------------------|------|------|------|------|------|------|------|
-------------------|------|------|------|------|------|------|------|
--3----------------|------|------|------|------|------|------|------|
-------------------|------|------|------|------|------|------|------|

                                                             
---------------------|-------------------|-------------------|
---------------------|-------------------|--0----------------|
--3------2------0----|-------------------|-------------------|
---------------------|--3----------------|-------------------|

                                                                               
-------------------|-------------------|-------------------|-------------------|

-------------------|--0----------------|-------------------|--0----------------|

-------------------|-------------------|--3----------------|-------------------|

--0----------------|-------------------|-------------------|-------------------|

                                                                               
-------------------|-------------------|-------------------|-------------------|

-------------------|-------------------|-------------------|--0----------------|

-------------------|-------------------|-------------------|-------------------|

--3----------------|--0----------------|--3----------------|-------------------|

                                                                               
-------------------|-------------------|-------------------|-------------------|

-------------------|--0----------------|-------------------|--0----------------|

-------------------|-------------------|--3----------------|-------------------|

--0----------------|-------------------|-------------------|-------------------|

                                                                               
-------------------|-------------------|------------------|--------------------|

-------------------|--0----------------|------------------|--------------------|

-------------------|-------------------|------------------|--------------------|

--3----------------|-------------------|------------------|--0--------0--------|

                                                              
--------------------|--------------------|--------------------|
--------------------|--------------------|--0--------0--------|
--3--------3--------|--------------------|--------------------|
--------------------|--3--------3--------|--------------------|

                                                              
--------------------|--------------------|--------------------|
--------------------|--------------------|--------------------|
--------------------|--3--------3--------|--------------------|
--0--------0--------|--------------------|--3--------3--------|

                                                              
--------------------|---------------------|-------------------|
--0--------0--------|---------------------|-------------------|
--------------------|---------------------|--3----------------|
--------------------|--0--------0----2----|-------------------|

                                                           
-------------------|------------------|--------------------|
--0----------------|------------------|--------------------|
-------------------|------------------|--------------------|
-------------------|------------------|--2--------2--------|

                                                              
--------------------|--------------------|--------------------|
--------------------|--0--------0--------|--------------------|
--------------------|--------------------|--0--------0--------|
--3--------3--------|--------------------|--------------------|

                                                             
-------------------|--------------------|--------------------|
-------------------|--------------------|--------------------|
--0----------------|--------------------|--3--------3--------|
-------------------|--0--------0--------|--------------------|

                                                              
--------------------|--------------------|--------------------|
--------------------|--0--------0--------|--------------------|
--------------------|--------------------|--------------------|
--3--------3--------|--------------------|--0--------0--------|

                                                              
--------------------|--------------------|--------------------|
--------------------|--------------------|--0--------0--------|
--3--------3--------|--------------------|--------------------|
--------------------|--3--------3--------|--------------------|

                                                                            
---------------------|-------------------|------|------|------|------|------|
---------------------|-------------------|------|------|------|------|------|
---------------------|--3----------------|------|------|------|------|------|
--0--------0----1----|-------------------|------|------|------|------|------|

                                                              
------|------|------|--------------------|--------------------|
------|------|------|--------------------|--------------------|
------|------|------|--------------------|--3--------3--------|
------|------|------|--0--------0--------|--------------------|

                                                              
--------------------|--------------------|--------------------|
--------------------|--0--------0--------|--------------------|
--------------------|--------------------|--------------------|
--3--------3--------|--------------------|--0--------0--------|

                                                              
--------------------|--------------------|--------------------|
--------------------|--------------------|--0--------0--------|
--3--------3--------|--------------------|--------------------|
--------------------|--3--------3--------|--------------------|

                                                              
---------------------|-------------------|--------------------|
---------------------|-------------------|--0--------0--------|
---------------------|--3----------------|--------------------|
--0--------0----1----|-------------------|--------------------|

                                                              
--------------------|--------------------|--------------------|
--0--------0--------|--------------------|--------------------|
--------------------|--------------------|--3--------3--------|
--------------------|--0--------0--------|--------------------|

                                                              
--------------------|--------------------|--------------------|
--------------------|--0--------0--------|--------------------|
--------------------|--------------------|--------------------|
--3--------3--------|--------------------|--0--------0--------|

                                                              
--------------------|--------------------|--------------------|
--------------------|--------------------|--0--------0--------|
--3--------3--------|--------------------|--------------------|
--------------------|--3--------3--------|--------------------|

                                                                            
---------------------|-------------------|------|------|------|------|------|
---------------------|-------------------|------|------|------|------|------|
---------------------|--3----------------|------|------|------|------|------|
--0--------0----1----|-------------------|------|------|------|------|------|

                                                        
------|------|---------------------|-------------------||
------|------|---------------------|-------------------||
------|------|--3------2------0----|-------------------||
------|------|---------------------|--3----------------||