´╗┐ c | carpenter mary-chapin | grow old with me crd online player | |


  
#-----------------------------PLEASE NOTE-------------------------------------#
#This OLGA file is the author's own work and represents their interpretation  #
#of the song. You may only use this file for private study, scholarship, or   #
#research. Remember to view this file in Courier, or some other monospaced    #
#font. See http://www.olga.net/faq/ for more information.                     #
#-----------------------------------------------------------------------------#

From: LqdKool3D@aol.com
Date: Wed, 12 Jun 2002 12:38:55 EDT
Subject: c/carpenter_mary-chapin/grow_old_with_me.crd


Grow Old With Me
~recorded by Mary Chapin Carpenter
~words & music John Lennon
~tabbed & chorded by XaNdEr


Chords used:  =20

        G     D7   D/G    Em   Am7    D =20
    E|--3--|--2--|--2--|--0--|--0--|--2--|
    B|--0--|--1--|--0--|--0--|--1--|--3--|
    G|--0--|--2--|--0--|--0--|--0--|--2--|
    D|--0--|--0--|--0--|--2--|--2--|--0--|
    A|--2--|--X--|--0--|--2--|--0--|--X--|
    E|--3--|--X--|--3--|--0--|--3--|--X--|

        G+    C   Gmaj7  Em7    Bm  Gsus4
    E|--3--|--0--|--2--|--3--|--2--|--3--|
    B|--0--|--1--|--0--|--0--|--0--|--1--|
    G|--0--|--0--|--0--|--0--|--0--|--0--|
    D|--1--|--2--|--0--|--0--|--0--|--0--|
    A|--2--|--3--|--2--|--2--|--2--|--2--|
    E|--3--|--0--|--3--|--0--|--2--|--2--|

Play: Intro, Verse 1, Chorus, Verse 2, Bridge, Intro, Verse 3, Coda

INTRO:
G   D7   G


VERSES:
     G    D/G   G                    Em     Am7  D7=20
Grow old a-long with me, the best is yet to be-----
G          D7       G             Em    Am7  D7
  When our time has come, we will be as one----


CHORUS:
C     Am7       G     Em
  God bless our love----
C     D         G    D7    G
  God bless our love--------


BRIDGE:
Gmaj7  Em7              Bm
           Spending our l...
Em7         Bm
    man and w....
C             Am7  Gsus4         G
world without end, world without end.


CODA:
G   G+   C   G