´╗┐ b | built to spill | car tab online player | |


  
#-----------------------------PLEASE NOTE-------------------------------------#
#This OLGA file is the author's own work and represents their interpretation  #
#of the song. You may only use this file for private study, scholarship, or   #
#research. Remember to view this file in Courier, or some other monospaced    #
#font. See http://www.olga.net/faq/ for more information.                     #
#-----------------------------------------------------------------------------#

From: "Scott Houle" 
Subject: b/built_to_spill/car.tab
Date: Thu, 11 Apr 2002 17:31:14 +0000



Author/Artist: Built To Spill
Title: Car
Album: Live/There's Nothing Wrong With Love
Email: scott_houle@hotmail.com


Standard

Intro/1st Verse (Some Notes are Ommitted Sometimes in the song)

------------------------------------------------------------------------
------------------------------------------------------------------------
------------------------------------------------------------------------
-----3--------3-------0---1-0-------------------------------------------
-1-1---1--0-0---0---1---1-----3-1---------------------------------------
------------------3-----------------------------------------------------



The "..Don't Let Me Know What You Find Out...)Part

------------------------------------------------------------------------
------------------------------------------------------------------------
------------------------------------------------------------------------
---0h1p0----0h1p0---1-0-------------------------------------------------
-1--------1-------3-----1-0---------------------------------------------
--------3---------------------------------------------------------------


Main Rhythm

----------3-3-3-3-------------------------------------------------------
----------3-3-3-3-------------------------------------------------------
----------3-3-3-3-8-8-8-8-----------------------------------------------
--8-8-8-8-5-5-5-5-8-8-8-8-----------------------------------------------
--8-8-8-8-5-5-5-5-6-6-6-6-----------------------------------------------
--6-6-5-5-3-3-3-3-------------------------------------------------------


Left Channel, First Solo (Live Version)

------------------------------------------------------------------------
------------------------------------------------------------------------
------------------------------------------------------------------------
-----0h1p0---0h1p0---0--------------------------------------------------
-1-1-------1-------1----------------------------------------------------
------------------------------------------------------------------------

1st Solo, Rough but  Close

------------------------------------------------------------------------
-4--------------------------------4-------------------------------------
-6b6-6-6-6-6-6-6-6r-6p4---4---4---6b6-6-6-6-6-6-6-6-6r-6p4---4----------
------------------------6---6------------------------------6------4h6-4h
---------------------------------------------------------------4h6---4h6
------------------------------------------------------------------------


------------------------------------------------------------------------
-------4------------------------------8---------------------------------
-------6b-6-6-6-6-6-6-6r-6p4---4---4--10101010101010r------------------4
-----4-----------------------6---6----------------------4h6---4h6---4h6-
-4h6-------------------------------------------------4h6---4h6---4h6----
------------------------------------------------------------------------


Outro Solo - Missing the Last 10 Seconds

------------------------------------------------------------------------
------------------------------------------------------------------------
-------------------------------------------7v---7v-7/9/11-12-11-11-9----
---------3---3-0h1-1-1-1/3-3-3-3/5-5-5/7-7v---7v------------------------
-1-1-3/5--3-5-----------------------------------------------------------
------------------------------------------------------------------------


   I can't decide on anything I'm happy with for the end of the last solo, 
so
I didn't include the end, but from this its pretty easy to fake the end 
part.
The first solo is from the live album because the There's Nothing Wrong With
Love Version is so dependent on the cello. The outro solo is pretty close in 
both,
and when I decide on the version I'll figure the rest out from I'll post it.
Otherwise, just listen to the album for the rhythm, variations and whatnot.