´╗┐ b | brood herman | i love you like i love myself tab online player | |


  
#-----------------------------PLEASE NOTE-------------------------------------#
#This OLGA file is the author's own work and represents their interpretation  #
#of the song. You may only use this file for private study, scholarship, or   #
#research. Remember to view this file in Courier, or some other monospaced    #
#font. See http://www.olga.net/faq/ for more information.                     #
#-----------------------------------------------------------------------------#

Date: Tue, 15 Oct 2002 03:41:21 -0700
From: Reneke Schepers 
Subject: b/brood_herman/i_love_you_like_i_love_myself.tab

I LOVE YOU LIKE I LOVE MYSELF
As recorded by Herman Brood

Transcribed by Reneke@lycos.com		

  G        C    G    D        C  G D
 4/4
  Intro, verse, solo:
|-3--------3----3----2--------3----2----|
|-3--------1----0----3--------1--0-3----|
|--------------------2-----------0-2----|
|--------------------------------0------|
|---------------------------------------|
|---------------------------------------|


  Chorus:
  C                 G             D               C
|-------------------------------------------------------------------|
|-------------------------------------------------------------------|
|-5-5-5-5-5-5-5-5-----------------7-7-7-7-7-7-7-7---5-----5-----5---|
|-5-3-3-3-3-3-3-3-5-5-5-5-5-5-5-5-7-7-7-7-7-7-7-7-------------------|
|-3-3-3-3-3-3-3-3-5-5-5-5-5-5-5-5-5-5-5-5-5-5-5-5-3---3-2---2-3---3-|
|-----------------3-3-3-3-3-3-3-3-----------------------------------|


  End of chorus (play 3 times after second verse)
  C    Am
|-----------|
|------1----|
|-5----2----|
|-5----2----|
|-3---------|
|-----------|


  Bridge before solo:
  C                                 F
|---------0---------------0---------------1---1--------|
|-------1---1-----------1---1-----------1--------------|
|----0-----------0----0-------0-------2-----2----------|
|------------------------------------------------------|
|-3----------------3-----------------------------------|
|-----------------------------------1------------------|



  C                                  F
|---------0--------------0----------------------------|
|-------1---1----------1----1-------------------------|
|----0---------------0--------0-----------------------|
|------------------------------------3-3-3-3-3-3-3-3--|
|-3---------------3-------------1----3-3-3-3-3-3-3-3--|
|------------------------------------1-1-1-1-1-1-1-1--|