´╗┐ b | bowie david | all the young dudes tab online player | |


  
#-----------------------------PLEASE NOTE-------------------------------------#
#This OLGA file is the author's own work and represents their interpretation  #
#of the song. You may only use this file for private study, scholarship, or   #
#research. Remember to view this file in Courier, or some other monospaced    #
#font. See http://www.olga.net/faq/ for more information.                     #
#-----------------------------------------------------------------------------#

Date: Tue, 23 Mar 2004 14:56:54 -0300
From: paul.mirolha 
Subject: b/bowie_david/all_the_young_dudes.tab

All the yong dudes(intro) - David Bowie

Tue, 23 Mar 2004 14:50
Trancribed by: Levi de Moraes Leme
e-mail: paul.mirolha@bol.com.br
legend: T : hammer-on or pull-of
	b : bend


e--14-----14-12h14p12h14p12--9-10----10-9h10p9h10p9----
B----15--------------------------12--------------------
G------14--------------------------11------------------
D------------------------------------------------------
A------------------------------------------------------
E------------------------------------------------------


e-----------------------------------------------10b(12)
B-12-10-14-14-14-14-13-12-10---14-14-14-14-12-10-------
G------------------------------------------------------
D------------------------------------------------------
A------------------------------------------------------
E------------------------------------------------------

Repeat