´╗┐ b | bluetones | last of the great navigators tab online player | |


  
#-----------------------------PLEASE NOTE-------------------------------------#
#This OLGA file is the author's own work and represents their interpretation  #
#of the song. You may only use this file for private study, scholarship, or   #
#research. Remember to view this file in Courier, or some other monospaced    #
#font. See http://www.olga.net/faq/ for more information.                     #
#-----------------------------------------------------------------------------#

Date: Sat, 21 Sep 2002 17:53:30 +0100
From: Tekno Fobe 
Subject: b/bluetones/last_of_the_great_navigators.tab

Artist: The Bluetones
Song: "Last of the Great Navigators"
Album: Science and Nature (Track 2)
Tabbed By: Noel Clay (teknofobe70@hotmail.com)

C       032010
F7sus4  131311
Dm/F    xx3231
A9      002420
F       113211
G6      005430
C6      003210


INTRO:

e:-------------------------0----|-------------------------0----|
B:-----------3----------3-------|-----------3----------3-------|
G:--------4----------4----------|--------4----------4----------|
D:--5--5----------5-------------|--5--5----------5-------------|
A:------------------------------|------------------------------|
E:------------------------------|------------------------------|

e:-------------------------0----|-------------------------0----|
B:-----------1----------1-------|-----------1----------1-------|
G:-----0--2-------0--2----------|-----0--2-------0--2----------|
D:--3---------------------------|--3---------------------------|
A:------------------------------|------------------------------|
E:------------------------------|------------------------------|

VERSE 1:
(with intro riff)

I float ... river
Leading ... life,
These ... I'm given,
The compass ... knife.

Chorus:
C               Fsus4
One ... time,  the old ... forgotten,

C                  Dm/F
Buried ... line, and left ... rotten  (x 2)

(VERSE 2)

(CHORUS)

BREAK:
A9                       F
I believe ... something good ... corner,
A9            F
I ... a premonition.
A9            F
Coasting ... sea ... warmer,
A9                   F
All my dreams ... fruition.

SOLO:
('something' like this)

e:------------------------------|
B:--3p5--1p3--------------------|
G:------------2p5--0p4--0p2-----|
D:------------------------------|
A:------------------------------|
E:------------------------------| x2

(VERSE 3)

(CHORUS)