b | black keys | heavy soul tab online player | |


  
#-----------------------------PLEASE NOTE-------------------------------------#
#This OLGA file is the author's own work and represents their interpretation  #
#of the song. You may only use this file for private study, scholarship, or   #
#research. Remember to view this file in Courier, or some other monospaced    #
#font. See http://www.olga.net/faq/ for more information.                     #
#-----------------------------------------------------------------------------#

Date: Tue, 5 Aug 2003 00:01:48 +1000
From: iprimus 
Subject: b/black_keys/heavy_soul.tab


HEAVY SOUL ^ The Black Keys



This song is off the first album by the Black Keys called The Big Come
Up. Anyway this is a very cool track. Enjoy!



Tabbed by Trajko Skopelja



Standard Tuning



Riff One

--------------------------------------------------

--------------------------------------------------

-------------------2b4r2p0------------------------

-------------2-------------2p0--2-----------------

----------2--2------------------2-----------------

-0--3--5-----0------------------0-----------------



Riff Two

--------------------------------------------------

--------------------------------------------------

-----------2-2------------------------------------

--2-2------2-2------------------------------------

--2-2------0-0------(----2)-----------------------

--0-0^3vb-------3vb^(3p0-0)-----------------------



Intro ^ drums then riff one, starts off verse



Verse (Riff one):



Hear her calling, come to me...



Chorus (Riff Two):



Hey now darling, your heavy soul...



Repeat bout three times



Cheers