´╗┐ b | big wig | cheers tab online player | |


  
#-----------------------------PLEASE NOTE-------------------------------------#
#This OLGA file is the author's own work and represents their interpretation  #
#of the song. You may only use this file for private study, scholarship, or   #
#research. Remember to view this file in Courier, or some other monospaced    #
#font. See http://www.olga.net/faq/ for more information.                     #
#-----------------------------------------------------------------------------#

From: "Jim R." 
Subject: b/big_wig/cheers.tab
Date: Wed, 30 Jan 2002 05:20:38 +0000


e|---------2----0--2-------2---------------------------------|
B|-------3----------------3----------------------------------|
G|-----2----------------2------------------------------------|
D|---0----------------0--------------------------------------|
A|-----------------------------------------------------------|
E|-----------------------------------------------------------|

e|-----------------------------------------------------------|
B|-----------------------------------------------------------|
G|------5---------------2------------------------------------|
D|------5-8or so times--2------------------------------------|
A|------7---------------0- about the same number times-------|
E|-----------------------------------------------------------|

e|-----------------------------------------------------------|
B|-----------------------------------------------------------|
G|--5---4----------------------------------------------------|
D|--5---4----2-----5-----------------------------------------|
A|--3---2----2-----5-----------------------------------------|
E|-----------0-----3-----------------------------------------|

e|-----------------------------------------------------------|
B|-----------------------------------------------------------|
G|--7----7---7--7----5--5--5--5------------------------------|
D|--7----7---7--7----5--5--5--5---5--5---5-5-----------------|
A|--5----5---5--5----3--3--3--3---5--5---5-5-----------------|
E|--------------------------------3--3---3-3-----------------|

e|-----------------------------------------------------------|
B|-----------------------------------------------------------|
G|-----------------------------------------------------------|
D|---4-4--4--4--4-4---5--5--5--5--5--5-----------------------|
A|---4-4--4--4--4-4---5--5--5--5--5--5---------5-------------|
E|---2-2--2--2--2-2---3--3--3--3--3--3-----------------------|