´╗┐ b | biffy clyro | joy discovery invention crd online player | |


  
#-----------------------------PLEASE NOTE-------------------------------------#
#This OLGA file is the author's own work and represents their interpretation  #
#of the song. You may only use this file for private study, scholarship, or   #
#research. Remember to view this file in Courier, or some other monospaced    #
#font. See http://www.olga.net/faq/ for more information.                     #
#-----------------------------------------------------------------------------#

Date: Sat, 31 Aug 2002 14:26:20 +0000
From: harry pothead 
Subject: b/biffy_clyro/joy_discovery_invention.crd

Song: Joy.Discovery.Invention.
Band: Biffy Clyro
Tuning: Dropped-D(DADGBE)
Tabbed By $@NDER
Verse
E|-----------------------------|
B|-----------------------------|
G|-----4-----4--4-----4--------|
D|---5-----5------5-----5------|
A|-5-----7---------------------|
D|-------------5----7----------|
Get Up Get Up Get over
E|-----------------------------|
B|-----------------------------|
G|-5/8-5/8--5/8\7--------------|
D|-x-x-x-x--x-x-x--------------|
A|-3/6-3/6--3/6\5--------------|
D|-----------------------------|
Take me to your blackened sky
E|---------------------------------|
B|---------------------------------|
G|-5-5-5-5-5-5-5-5-7-7-7-7-7-7-7-7-|
D|-5-5-5-5-5-5-5-5-7-7-7-7-7-7-7-7-|
A|-3-3-3-3-3-3-3-3-5-5-5-5-5-5-5-5-|
D|---------------------------------|
Passed Awaay I hope you don't mind
E|-----------------------------------------------|
B|-----------------------------------------------|
G|-9-9-8-8----------------6-6-7-7-7//9-9-9-9-9-9-|
D|-x-x-x-x-7//9-9-9-9-9-9-x-x-x-x-7//9-9-9-9-9-9-|
A|-7-7-6-6-5//7-7-7-7-7-7-4-4-5-5-5//7-7-7-7-7-7-|
D|---------5//7-7-7-7-7-7---------5//7-7-7-7-7-7-|
If you wanna get it come and break my heart
E|-----------------------------------------------------------------|
B|-----------------------------------------------------------------|
G|-5-5-5-5-5-5-5-5-7-7-7-7-7-7-7-7-9-9-9-9-9-9-9-9-7-7-7-7-7-7-7-7-|
D|-5-5-5-5-5-5-5-5-7-7-7-7-7-7-7-7-9-9-9-9-9-9-9-9-7-7-7-7-7-7-7-7-|
A|-3-3-3-3-3-3-3-3-5-5-5-5-5-5-5-5-7-7-7-7-7-7-7-7-5-5-5-5-5-5-5-5-|
D|-----------------------------------------------------------------|
Take me to your blackened sky
E|---------------------------------|
B|---------------------------------|
G|-5-5-5-5-5-5-5-5-7-7-7-7-7-7-7-7-|
D|-5-5-5-5-5-5-5-5-7-7-7-7-7-7-7-7-|
A|-3-3-3-3-3-3-3-3-5-5-5-5-5-5-5-5-|
D|---------------------------------|
For the Outro just play the "If You wanna" part clean and palm muted
and pick the "blackened sky" part