´╗┐ b | biffy clyro | 57 tab online player | |


  
#-----------------------------PLEASE NOTE-------------------------------------#
#This OLGA file is the author's own work and represents their interpretation  #
#of the song. You may only use this file for private study, scholarship, or   #
#research. Remember to view this file in Courier, or some other monospaced    #
#font. See http://www.olga.net/faq/ for more information.                     #
#-----------------------------------------------------------------------------#

Date: Fri, 16 Apr 2004 07:09:13 -0700 (PDT)
From: shahare gigi 
Subject: b/biffy_clyro/57.tab

Drop D tuning
intro
e---------------------------------------------------------------------
B---------------------------------------------------------------------
G---------------------------------------------------------------------
D---3-3-3-3-x-33-3-3---------0-5-0-4/5-5-0-0-4-4-4-4-x-44-4-4---------
A---4-4-4-4-x-44-4-4---------0-5-0-4/5-5-0-0-4-4-4-4-x-44-4-4--(drums)
D---4-4-4-4-x-44-4-4---------0-5-0-4/5-5-0-0-4-4-4-4-x-44-4-4---------
---------------------------------------------------------------------
---------------------------------------------------------------------
---------------------------------------------------------------------
---0-5-0-4/5-5-0-0-4-4-4-4-x-44-4-4--------------0-5-0-4/5-5-0-0-4-4-
---0-5-0-4/5-5-0-0-4-4-4-4-x-44-4-4---(drums)----0-5-0-4/5-5-0-0-4-4-
---0-5-0-4/5-5-0-0-4-4-4-4-x-44-4-4--------------0-5-0-4/5-5-0-0-4-4-
---------------------------------------------------------------------
---------------------------------------------------------------------
---------------------------------------------------------------------
---4-4-x-44-4-4--------------0-5-0-4/5-5-0-0-------------------------
---4-4-x-44-4-4---(drums)----0-5-0-4/5-5-0-0-------------------------
---4-4-x-44-4-4--------------0-5-0-4/5-5-0-0-------------------------
verse
---------------------------------------------------------------------
---------------------------------------------------------------------
---11-------7-------11------7-------11------7-------11------7--------
---11-------7-------11------7-------11------7-------11------7--------
---9--------5-------9-------5-------9-------5-------9-------5--------
---------------------------------------------------------------------
the sunshine on in,
your beautiful face, your beautiful face
bridge
---------------------------------------------------------------------
---------------------------------------------------------------------
---------------------------------------------------------------------
---11-9-7-6-6-66-66-6-7-9-7-7-77-77-7-11-9-7-------------------------
---9--7-5-4-4-44-44-4-5-7-5-5-55-55-5-9--7-5----(repeat 4 times)-----
---------------------------------------------------------------------
i held her tight, close to my heart
didnt know it would break, didnt know it would break
chorus
---------------------------------------------------------------------
---------------------------------------------------------------------
---------------------------------------------------------------------
---4p0-5-5-7-7-9-9-9-9-5-5-7-7-0-0-0-0-5-5-7-7-9-9-4-4-5-5-7-7-x-----
---4p0-5-5-7-7-9-9-9-9-5-5-7-7-0-0-0-0-5-5-7-7-9-9-4-4-5-5-7-7-x-----
---4p0-5-5-7-7-9-9-9-9-5-5-7-7-0-0-0-0-5-5-7-7-9-9-4-4-5-5-7-7-x-----
i dont believe theres a love anymore its all inside,
we always said its forever in this beautiful life
(stop)
and ill try not to feel this musics for you(hey) and over (hey) and over.
---------------------------------------------------------------------
---------------------------------------------------------------------
---------------------------------------------------------------------
---0-0-0-0-7-7-7-7-5-5-5-5-5-5-5-5-----------------------------------
---0-0-0-0-7-7-7-7-5-5-5-5-5-5-5-5-----------------------------------
---0-0-0-0-7-7-7-7-5-5-5-5-5-5-5-5-----------------------------------
verse2
---------------------------------------------------------------------
---------------------------------------------------------------------
---11-11-1111-1111-11-11-9-7-6-6-66-66-6-6-7-9-11--------------------
---11-11-1111-1111-11-11-9-7-6-6-66-66-6-6-7-9-11--------------------
---9--9--9-9--9-9--9--9--7-5-4-4-44-44-4-4-5-7-9---------------------
---------------------------------------------------------------------
i held ehr tight, close to my heart
didnt know it would break, didnt know it would break

chorus
---------------------------------------------------------------------
---------------------------------------------------------------------
---------------------------------------------------------------------
---4p0-5-5-7-7-9-9-9-9-5-5-7-7-0-0-0-0-5-5-7-7-9-9-4-4-5-5-7-7-x-----
---4p0-5-5-7-7-9-9-9-9-5-5-7-7-0-0-0-0-5-5-7-7-9-9-4-4-5-5-7-7-x-----
---4p0-5-5-7-7-9-9-9-9-5-5-7-7-0-0-0-0-5-5-7-7-9-9-4-4-5-5-7-7-x-----
i dont believe theres a love anymore its all inside,
we always said its forever in this beautiful life
(stop-------5-------5-------5----
     ---2/3---3-2/3---3-2/3---3-2
     ----------------------------
     ----------------------------
     ----------------------------
     ----------------------------)
and ill try not to feel this musics for you(hey) and over (hey) and over.
---------------------------------------------------------------------
---------------------------------------------------------------------
---------------------------------------------------------------------
---0-0-0-0-7-7-7-7-5-5-5-5-5-5-5-5-----------------------------------
---0-0-0-0-7-7-7-7-5-5-5-5-5-5-5-5-----------------------------------
---0-0-0-0-7-7-7-7-5-5-5-5-5-5-5-5-----------------------------------
outro
---------------------------------------------------------------------
---------------------------------------------------------------------
---------------------------------------------------------------------
---11-11-1111-1111-11-\9-7-7-----------------------------------------
---9--9--9-9--9-9--9--\7-5-5-----------------------------------------
---------------------------------------------------------------------
end on:
-------
-------
-------
---4---
---4---
---4---
 

________________________________________________________________________________