´╗┐ b | badly drawn boy | river sea ocean tab online player | |


  
#-----------------------------PLEASE NOTE-------------------------------------#
#This OLGA file is the author's own work and represents their interpretation  #
#of the song. You may only use this file for private study, scholarship, or   #
#research. Remember to view this file in Courier, or some other monospaced    #
#font. See http://www.olga.net/faq/ for more information.                     #
#-----------------------------------------------------------------------------#

Date: Tue, 22 Oct 2002 23:49:16 -0400
From: roscoE4420@aol.com
Subject: b/badly_drawn_boy/river_sea_ocean.tab

River, Sea, Ocean from the "About a Boy" soundtrack by Badly Drawn Boy
Tabbed by Brett Rieley - this is my own transcription

Figured this out from listening and seeing it live.  im kinda confident its right... 
prove me wrong and email me changes, plz!
- roscoe4420@aol.com


 E----2-2-----5-5-----7-7-----10-10-10-
 B----2-2-----5-5-----7-7-----10-10-10-
 G----2-2-----5-5-----7-7-----10-10-10-
 D--0-------0-------0-------0----------
 A--------0-------0-------0----------0-
 E-------------------------------------

 E----10-10---5-5-----7-7----3-3--
 B----10-10---5-5-----7-7----3-3--
 G----10-10---5-5-----7-7----3-3--
 D--8-----8-3---3--6-------5------
 A------8------3------------------
 E--------------------------------

 E---2-2--2--2-2--2--2-2--2--2-2-
 B---2-2--2--2-2--2--2-2--2--2-2-
 G---2-2--2--2-2--2--2-2--2--2-2-
 D-0-------0-------0-------0-----
 A-------0-------0-------0-------
 E-------------------------------
stays the same throughout, even thru the bridge.  
some electric stuff mimics vocals, easy to figure out

have fun, 
-brett