´╗┐ b | badly drawn boy | once around the block btab online player | |


  
#-----------------------------PLEASE NOTE-------------------------------------#
#This OLGA file is the author's own work and represents their interpretation  #
#of the song. You may only use this file for private study, scholarship, or   #
#research. Remember to view this file in Courier, or some other monospaced    #
#font. See http://www.olga.net/faq/ for more information.                     #
#-----------------------------------------------------------------------------#

Date: Mon, 5 Jan 2004 19:56:22 -0600
From: c0bra 
Subject: b/badly_drawn_boy/once_around_the_block.btab

Song: Once Around the Block
Artist: Badly Drawn Boy
Album: Hour of the Bewilderbeast
Tabbed by: Brian Hann

I got the outro part of this song from a tab by Daniel Gilbert.  However, I
do not feel it is correct for the rest of the song.


G|--------------------------------------|
D|*-------------------------------------|
A|*----5--------1--------1--------3-----|
E|---5---5----1---1----1---1----3---3---|

Of course you can play the 5th fret part on open frets on the A and D
strings, but I found it hard to keep correct timing when switching to the
1st fret part.


The outro from Daniel is this, which comes in after the singing has stopped.


G|---------------------------------|
D|*--------------------------------|
A|*---------1------1------3---3----|
E|---5----5------1------1---3------|