b | backyard babies | look at you crd online player | |


  
#-----------------------------PLEASE NOTE-------------------------------------#
#This OLGA file is the author's own work and represents their interpretation  #
#of the song. You may only use this file for private study, scholarship, or   #
#research. Remember to view this file in Courier, or some other monospaced    #
#font. See http://www.olga.net/faq/ for more information.                     #
#-----------------------------------------------------------------------------#

Date: Fri, 03 Jan 2003 15:23:48 +0100
From: Joel Sorensson 
Subject: b/backyard_babies/look_at_you.crd

song: look at you
band: backyard babies
album: total 13
tabbed by: joel (j_sorensson@hotmail.com)

tune down 1/2 step.

Intro/Chorus:
eb----------------    ----------------
bb----------------    ----------------
gb-------------7-- x2 -----7-------7--
db--7--7---7-7-7--    -7-7-7---7-7-7--
ab--7--7---7-7-5--    -7-7-5---7-7-5--
eb--5--5---5-5----    -5-5-----5-5----

eb----------------    ----------------
bb----------------    ----------------
gb-------------2-- x2 -----2-------2--
db--2--2---2-2-2--    -2-2-2---2-2-2--
ab--2--2---2-2-0--    -2-2-0---2-2-0--
eb--0--0---0-0----    -0-0-----0-0----


Verse:
A F#m E D  (D C# D)

(One guitar plays the note A during the whole verse.)


"You know you could be...":
D  E(hi)


Play chorus twice.


"Ev'rybody wanna dance..":
D  A
D  A  F#m
D  A
F#m D A


"Look at the amount...":
D......A.....E......D.............


Play chorus a couple of times.

Play the "Ev'rybody wanna dance.." repeat the last line.

look at this. questions? comments? corrections? pics of cheese?
mail me.