´╗┐ a | aztec two-step | youve got a way tab online player | |


  
#-----------------------------PLEASE NOTE-------------------------------------#
#This OLGA file is the author's own work and represents their interpretation  #
#of the song. You may only use this file for private study, scholarship, or   #
#research. Remember to view this file in Courier, or some other monospaced    #
#font. See http://www.olga.net/faq/ for more information.                     #
#-----------------------------------------------------------------------------#

Date: Mon, 27 Aug 2001 09:57:09 EDT
From: NickDV@aol.com
Subject: a/aztec_two-step/youve_got_a_way.tab

Title: You've Got a Way....
Artist: Aztec Two-Step
Album: "See it was like this..."
Tabbed by: Nicholas De Vito

This song is pretty simple to play. The intro is played twice
at the beginning, as well as serving as a filler between
verses. Also, I find that the last three sets of notes in
the intro and verse are played more easily by using the thumb
to fret the notes on the E string. Any questions/comments can
be sent to nickdv@guitar.com
Enjoy!

INTRO: Repeat 2x
E:|-----5p0-----------5p0------4p0-------0------------------|
B:|---0-----0-------0-----0----------0h4--------------------|
G:|-6-------------4----------------2----------1---2---4-----|
D:|-7-------------6------------4----------------------------|
A:|---------------------------------------------------------|
E:|-------------------------------------------0---2---4-----|

VERSE: Repeat 4x
E:|------0-------------0------------0-----------------------|
B:|---0-----0-------0-----0------0-----0--------------------|
G:|-6-------------4------------2--------------1---2---4-----|
D:|-7-------------6------------4----------------------------|
A:|---------------------------------------------------------|
E:|-------------------------------------------0---2---4-----|