´╗┐ a | anouk | nobodys wife tab online player | |


  
#-----------------------------PLEASE NOTE-------------------------------------#
#This OLGA file is the author's own work and represents their interpretation  #
#of the song. You may only use this file for private study, scholarship, or   #
#research. Remember to view this file in Courier, or some other monospaced    #
#font. See http://www.olga.net/faq/ for more information.                     #
#-----------------------------------------------------------------------------#

Date: Fri, 22 Aug 2003 00:15:11 +0200
From: Steven Overloop 
Subject: a/anouk/nobodys_wife.tab

Nobody's wife   by  Anouk                                                    
      Tabbed by  Steven Overloop

I had some time to kill, and I couldn't find the tab of this song, so I 
decided to tab it myself. Please feel free to correct, although I'm pretty 
sure it's right.

Tune down half a step

--------0----------------------------------------------
------0--(0)-----3-0---------0-1-(0)-------------------
----------------------(0)-------------------0---0-(0)--
----2----------2------------2-------------0------------
-------------3-------------0-------------2-------------
--0-------------------------------------3-----2--------


--------0----------------------------------------------
------0--(0)-----3-0---------0-1-(0)-------------------
----------------------(0)-------------------0---0-(0)--
----2----------2------------2-------------0------------
-------------3-------------0-------------2-------------
--0-------------------------------------3-----2--------

         			             I'm

--------0----------------------------------------------
------0--(0)-----3-0---------0-1-(0)-------------------
----------------------(0)-------------------0---0-(0)--
----2----------2------------2-------------0------------
-------------3-------------0-------------2-------------
--0-------------------------------------3-----2--------

  sorry, for the times that I made you scream.  For the times that I killed 
your

--------0----------------------------------------------
------0--(0)-----3-0---------0-1-(0)-------------------
----------------------(0)-------------------0---0-(0)--
----2----------2------------2-------------0------------
-------------3-------------0-------------2-------------
--0-------------------------------------3-----2--------

dreams. For the times that I made your whole world rumble.

--------0----------------------------------------------
------0--(0)-----3-0---------0-1-(0)-------------------
----------------------(0)-------------------0---0-(0)--
----2----------2------------2-------------0------------
-------------3-------------0-------------2-------------
--0-------------------------------------3-----2--------
For the times that I made you cry, for the times that I told you lies
Then
                                   let it ring
--------0------------------------
------0--(0)-----3-0-------------
---------------------------5-----
----2----------2----------5------
-------------3-------------3-----
--0------------------------------

For the times that I watched and let you stumble...   It's too

Chorus


E		C		A	        G F#
  \//\ \//\\//\ \//\ \//\\//\ \//\ /\ /\ /\ \/ \/
----------------------------------------------------------
----------------------------------------------------------
--9-9--x-x-x-x--5-5--x-x-x-x------------------------------
--9-9--x-x-x-x--5-5--x-x-x-x--7-7--7--7--7--5--4----------
--7-7--x-x-x-x--3-3--x-x-x-x--7-7--7--7--7--5--4----------
------------------------------5-5-----------3--2----------

bad, 		but  that's me			What
E		C		A	        G F#
  \//\ \//\\//\ \//\ \//\\//\ \//\ /\ /\ /\ \/ \/
----------------------------------------------------------
----------------------------------------------------------
--9-9--x-x-x-x--5-5--x-x-x-x------------------------------
--9-9--x-x-x-x--5-5--x-x-x-x--7-7--7--7--7--5--4----------
--7-7--x-x-x-x--3-3--x-x-x-x--7-7--7--7--7--5--4----------
------------------------------5-5-----------3--2----------

What goes around comes around, you'll see
  A	         D	   G	        C
  \/ \/ \//\  \/ \/ \//\ \/ \/ \//\  \/
----------------------------------------------
----------------------------------------------
--------------7--7--7-7---------------5-------
--7--7--7-7---7--7--7-7---5-5--5--5---5-------
--7--7--7-7---5--5--5-5---5-5--5--5---3-------
--5--5--5-5---------------3-3--3--3-----------

That I can carry the burden of pain







  A	         D	          G	          C
  \/ \/ \//\  \/ \/ \//\ \/ \/ \//\  \/
--------------------------------------------
--------------------------------------------
--------------7--7--7-7---------------5-----
--7--7--7-7---7--7--7-7---5-5--5--5---5-----
--7--7--7-7---5--5--5-5---5-5--5--5---3-----
--5--5--5-5---------------3-3--3--3---------

cause it ain't the first time that a man goes insane

  A	         D	          G	          C
  \/ \/ \//\  \/ \/ \//\ \/ \/ \//\  \/
--------------------------------------------
--------------------------------------------
--------------7--7--7-7---------------5-----
--7--7--7-7---7--7--7-7---5-5--5--5---5-----
--7--7--7-7---5--5--5-5---5-5--5--5---3-----
--5--5--5-5---------------3-3--3--3---------

And when I spread my wings to embrace him for life

  A	         D	   G	        C
  \/ \/ \//\  \/ \/ \//\  \//\     \/
-------------------------------------------
-------------------------------------------
--------------7--7--7-7----------- 5-------
--7--7--7-7---7--7--7-7---5-5------5-------
--7--7--7-7---5--5--5-5---5-5------3-------
--5--5--5-5---------------3-3--x-----------




Give me some time to figure out the solo. I'm not gonna rush it, but if you 
really want it, just send me a mail and I'll tab it for you a bit faster 
than planned. And please feel free to correct if you find any mistakes, I 
would really appreciate it.

Greetz,


Steven from Belgium.

e-mail: SevereWizard2@hotmail.com



Ceterum censeo Carthaginem esse delendam!