´╗┐ a | amorphis | my kantele tab online player | |


  
#-----------------------------PLEASE NOTE-------------------------------------#
#This OLGA file is the author's own work and represents their interpretation  #
#of the song. You may only use this file for private study, scholarship, or   #
#research. Remember to view this file in Courier, or some other monospaced    #
#font. See http://www.olga.net/faq/ for more information.                     #
#-----------------------------------------------------------------------------#

Date: Tue, 11 May 2004 15:16:30 -0300
From: Fimu-chan 
Subject: a/amorphis/my_kantele.tab

Song: My Kantele (acoustic)
Artist: Amorphis

Tab by Marco Tulio Rodrigues Pires
			fimu@waymail.com.br

Turn down 2 steps.
Intro

d|---------------------------------------------------------------------- |
A|--3-------3-----------3-----3--------------------------3--------3----- |
F|--2-------0h2p0---------0-----0--------------------------2--------2--- |
C|--0--0h3--0------3-2------2------3-2h3p2-0--3-2-----0--------0-------- |
G|-------------------------------------------------3-------------------- |
D|---------------------------------------------------------------------- |

Repeat Intro through the verses


Between verses you play these chords (listen to the song to get the
timing):

Gm Dm B Csus2
0  0  0   0
1  0  1   3
2  0  0   2
2  2  2   0
0  2  3   x
x  0  x   x


Then we have this: (3:25s song time)

d|------------------------------8------------------------------------8-- -----|
A|---10------10------8-----8------8---8-----8------8------6-----6------6 ---6-|
F|------7-------7------7----------------------7------7------7----------- -----|
C|-0--------0-------0----0---0------0-----0------0------0-----0----0---- -0---|
G|---------------------------------------------------------------------- -----|
D|---------------------------------------------------------------------- -----|


d|-------------------------------8-------------------------------3------ -|
A|------6------6------5-----5------5---5----3-----3--------3-------3---3 -|
F|--------7------7------7---------------------0-----0--------5---------- -|
C|---0-------0------0-----0----0-----0----0-----0-----0--------5-----5-- -|
G|-------------------------------------------------------3-------------- -|
D|---------------------------------------------------------------------- -|


These are the chords for this part, I don't know if they are really
accurate:

d|--5-----3------1---0----------1-------------|
A|--3-----3------3---1----------1-------------|
F|--2-----0------2---0----------2-------------|
C|--0-----0------0---2----5-----3-------------|
G|--------2----------3----5-----3-------------|
D|--------3---------------3-----1-------------|



--