a | altered | low tab online player | |


  
Low - The Altered
 - Tabbed by Dusty Altena (macrocosm@usa.net)


- Dropped-D


*1 (intro, verse)
e|------------------------------------
b|------------------------------------
g|------------------------------------
d|-11-11-11-11-11\7-7-7-7-7-----------
a|-11-11-11-11-11\7-7-7-7-7-----------
D|-11-11-11-11-11\7-7-7-7-7-----------


*2 (solo thing)
e|------------------------------------
b|-(12)/15\12/15\12~------------------
g|------------------------------------
d|------------------------------------
a|------------------------------------
D|------------------------------------


*3 (chorus)
e|------------------------------------
b|------------------------------------
g|------------------------------------
d|------------------------------------
a|------------------------------------
D|------------------------------------


this isn't the rhythm. you should be able to figure 
that out yourself. it's also not the exact number
of strokes.


i've only heard this song about 6 times on ztv, and i 
never have my guitar with me. so i only can tab what
i can't remember. and i can't remember the chorus 
(something with e's, g#'s, slides, and palm muting?)
if i ever get the disc, or a sound clip, i can tab it out.


and if you want to badly enough, you can play it in standard.
that's probably how they play it anyway...i prefer dropped-d


mail any corrections/comments to me at macrocosm@usa.net