´╗┐ a | alan jackson | chattahoochie tab online player | |


  
#----------------------------------PLEASE NOTE---------------------------------#
#This file is the author's own work and represents their interpretation of the #
#song. You may only use this file for private study, scholarship, or research. #
#------------------------------------------------------------------------------#
#
Alan Jackson-Chattahoochee
From: adams@wdl1.wdl.loral.com (Jimmy Adams)

Corrections and Comments welcome.

e-------------------------------------------------------
B-------------------------------------------------------
G-----------------------------------0-------------------
D-------------------------------0-2---------------------
A--2/3-3-3---2/3-3-3---2/3-3-3--------------------------
E-------------------------------------------------------

e-------------------------------------------------------
B-------------------------------------------------------
G-------------------------------------------------------
D---------------------0-2-0-----------------------------
A--2/3-3-3---2/3-3-3--------3---------------------------
E-------------------------------------------------------

e-------------------------------------------------------
B-------------------------------------------------------
G-----------------------------------0-------------------
D-------------------------------0-2---------------------
A--2/3-3-3---2/3-3-3---2/3-3-3--------------------------
E-------------------------------------------------------

e-------------------------------------------------------
B---------------------1---------------------------------
G-----------------------2-0---0---0---------------------
D---------------------------2---2---0-------------------
A--2/3-3-3---2/3-3-3------------------3------------------
E-------------------------------------------------------

C
Way down yonder on the ...

		      G		  C
Its get hotter than a ....

C
We laid rubber on the ...

C			     G	       C
We got a little crazy but ...

F
Down by the river on a ...

C			
A few Miller cans in the ...

F
Talkin' 'bout cars and ...

D7					G
Never had a plan, just ...

Chorus

C
Way down yonder on ...

				     G
never knew how much that muddy ....


C
But I learned how to swim ...

			 G
A lot 'bout living and ...


Chorus