´╗┐ a | a perfect circle | orestes tab online player | |


  
#-----------------------------PLEASE NOTE-------------------------------------#
#This OLGA file is the author's own work and represents their interpretation  #
#of the song. You may only use this file for private study, scholarship, or   #
#research. Remember to view this file in Courier, or some other monospaced    #
#font. See http://www.olga.net/faq/ for more information.                     #
#-----------------------------------------------------------------------------#

Date: Thu, 1 Nov 2001 07:59:50 -0800 (PST)
From: philip wheeler 
Subject: a/a_perfect_circle/orestes.tab

Band: A Perfect Circle
Album: Mer De Noms
Song: Orestes
Tabbed By: Philip Wheeler 

First of all thank you to everyone who emailed me
about my 3 Libras tab. Here's my next contribution
to the meager supply of APC tabs on OLGA.
This is all my own work!!


Riff 1 (0:00)
E----------------------------
B--------------5-----5-------
G----4-----4-----6-----6-----
D--6-----6---------4-----4---
A------7-----7---------------
E----------------------------
 
Fill 1 (1:38)
-/8-7-5-4-7-7-7-7\2-2-2-2/4--
-----------------------------
-----------------------------
-----------------------------
-----------------------------
-----------------------------

Riff 2 (1:47)
--------------------------
--------------------------
-6-6-6-6-6-6-4-4-4-4-4-4--
-6-6-6-6-6-6-4-4-4-4-4-4--
-4-4-4-4-4-4-2-2-2-2-2-2--
--------------------------

--------------------------
--------------------------
-2-2-2-2-2-2-2-2-2-2-2-2--
-2-2-2-2-2-2-2-2-2-2-2-2--
-0-0-0-0-0-0-0-0-0-0-0-0--
--------------------------

Fill 2 (2:07)
---------------------------------
---------------------------------
-/9-9-9-/11-11-11\-6-6-6h7p6h7p6-
---------------------------------
---------------------------------
---------------------------------

-------------------------------------
-------------------------------------
-/9-9-9-/11-11-11-11b-11b-11b-11b-11-
-------------------------------------
-------------------------------------
-------------------------------------
	            hold--------->release


Solo Riff (2:27)
-----------------------------------|---
-----------------------------------|---
-----------6-----------------------|---
---4-4/6-6---6-6\4-------------4-4-|---
-7-----------------7-4-4/6-7-6-----|---
-----------------------------------|---
1st                           repeat
------------------------------------|--
------------------------------------|--
------------6-----------------------|--
----4-4/6-6---6-6\4-----------------|--
--7-----------------7-4-4/6-7-6-4-2-|--
------------------------------------|--
2nd
---------------------------
---------------------------
---------------------------
----4---4------------------
--7---7---7-7-6-7-6-4\2-2--
---------------------------

Riff 1 again (2:46)

Fill 3 (2:55)
-/4-/7-7-7-/9-9-9\-4-4-4h5p4h5p4--
----------------------------------
----------------------------------
----------------------------------
----------------------------------
----------------------------------

-/7-7-7-/9-9-9-9b-9b-9b-9-9----
-------------------------------
-------------------------------
-------------------------------
-------------------------------
-------------------------------
               hold--->release
Fill 2 again (3:15)

Fill 4 (3:32)
---------
---------
--6-8-9--
--6-8-9--
--4-6-7--
---------

Riff 2 again (3:35)


Solo Riff again (3:55)

There is only one part I am not sure of and that is
the
first time Maynard sings "Gotta cut away..." There is
another riff which is a variation of Riff 1. If anyone
can figure that part out please add it to this tab.