a | a perfect circle | brena tab online player | |


  
#-----------------------------PLEASE NOTE-------------------------------------#
#This OLGA file is the author's own work and represents their interpretation  #
#of the song. You may only use this file for private study, scholarship, or   #
#research. Remember to view this file in Courier, or some other monospaced    #
#font. See http://www.olga.net/faq/ for more information.                     #
#-----------------------------------------------------------------------------#

Date: Wed, 18 Dec 2002 01:13:04 +0000
From: Luis Adolfo Barrios Len 
Subject: a/a_perfect_circle/brena.tab

A perfect circle - Mer de Noms
BREA - TABBED BY (Luis Barrios)  15-12-2k2_11:10

This is all my own work.I f you have any suggestions or comments of my
skills, please email me. enjoy it!!!!!
/-Slide
~-let ring
^-half bend
h-hammer
r-release
X-string muted
TUNNING DROPPED D

Riff 1(0:32)
Clean guitar
E|-----------------------|
B|-------2---------------|
G|-----3---3-----------3-|
D|---3-------3-------3---|
A|-1-----------1---1-----|
D|-----------------------|x2
(0:40)
This part is a variation of Riff 1. This is my interpretation
E|-------1----|
B|-------2----|
G|-------3----|
D|---3--------|
A|-1---1------|
D|------------|x2
Repeat this again
Riff 2(1:04)
Dist. guitar
E|---------------------------------|
B|---------------------------------|
G|-3-3---/6-6---/8-8-------8-------|
D|-3-3---/6-6---/8-8---8---8---6--8|
A|-1-1---/4-4---/6-6---8---6---6--8|
D|---------------------8-------6--8|
E|---------------------------------------|
B|---------------------------------------|
G|---------------------------------------|
D|-8---88--/11-11--/888--/13-13--/66--/88|
A|-8---88--/11-11--/888--/13-13--/66--/88|
D|-8---88--/11-11--/888--/13-13--/66--/88|x2
E|--------------------------------|
B|--------------------------------|
G|-10-10--/6-6--/8-8---------4~---|
D|-10-10--/6-6--/8-8---4--6--4~---|
A|-8--8---/4-4--/6-6---4--6--2~---|
D|---------------------4--6-------|

Riff 1(1:24)Theres a thight variation, in the first time
E|---------1----------------|
B|-------2---2--------------|
G|-----3-------3-----------3|
D|---3-----------3-------3--|
A|-1---------------1---1----|
D|--------------------------|
E|---------------------|
B|-------------2-------|
G|-----3--------------3|
D|---3---3---3------3--|
A|-1-------1------1----|
D|---------------------|
the rest goes as in Riff 1

Riff 2(1:56)Another variation
E|----------------------------|
B|----------------------------|
G|-3-3---/6-6---------8-------|
D|-3-3---/6-6---8-8---8---6--8|
A|-1-1---/4-4---8-8---6---6--8|
D|--------------8-8-------6--8|
the rest is the same
Riff 3(2:16)
Dist. guitar
E|---------------------------------------------|
B|---------------------------------------------|
G|-333333-/5555-/666666-/888888-/10-10-10-10-10|
D|-333333-/5555-/666666-/888888-/10-10-10-10-10|
A|-111111-/3333-/444444-/666666-/8--8--8--8--8-|
D|---------------------------------------------|x4
Riff 4(2:48)
Dist. guitar
E|---------------------------------|
B|---------------------------------|
G|---------------------------------|
D|-8~-88--/11-10--66-/88-8--4-4~---|
A|-8~-88--/11-10--66-/88-8--4-4~---|
D|-8~-88--/11-10--66-/88-8--4-4~---|x2
S0LO & END(3:19)
Clean guitar
E|----9--8-----------------------------------|
B|----------6~--/2-4-2-4-7-6--7-6------------|
G|---------------------------------8-6-5-5~--|
D|-8-----------------------------------------|
A|-------------------------------------------|
D|-------------------------------------------|
E|-8-7-6-------------------------------------------------|
B|-------9-7-6-7-6---------------------------------------|
G|-----------------8-6-8^8------------5-6r5--------------|
D|--------------------------8-----6-8-------8-6-8r6-8r6--|
A|----------------------------4-6------------------------|
D|-------------------------------------------------------|
E|---------------------------------------------------------|
B|---------------------------------------------------------|
G|----------6-5-------8-6----------------6-5---------------|
D|--6-6-6-6-----6-8-6-----6-8-8^-6-6-6-6-----6-8-----------|
A|-----------------------------------------------6-8-8^-8--|
D|---------------------------------------------------------|
 --X-X-X-X---------X------------X-X-X-X-------------------
E|----------------------1~--|
B|----------------------2~--|
G|----------------------3~--|
D|----------------------3~--|
A|----------------------1~--|
D|-8-10-11-10-5-3-4-6-------|
Thats all, see ya!