´╗┐ a | a perfect circle | 3 libras btab online player | |


  
#-----------------------------PLEASE NOTE-------------------------------------#
#This OLGA file is the author's own work and represents their interpretation  #
#of the song. You may only use this file for private study, scholarship, or   #
#research. Remember to view this file in Courier, or some other monospaced    #
#font. See http://www.olga.net/faq/ for more information.                     #
#-----------------------------------------------------------------------------#

Date: Sun, 1 Oct 2000 18:31:21 -0400
From: "Devan Oldfield" 
Subject: 3/3_libras/a_perfect_circle.btab

3 Libras   "A Perfect Circle"


Riff 1

-------------------------------------------------------------
-------------------------------2-2---------------------------
----------------4-4-----------------4-4-----------------4-4--
-5-5--5-5--5-5-------5-5--5-5------------5-5--5-5--5-5-------

-----------------------------------------
----------2-2----------------------------
-----------------------------------------
5-5--5-5------4-4--5-5--5-5--5-5--5------



Riff 2

--------------------------------
--------------------------------
--------------------------------
--5-5-5-0-0-0-7-7-7-3-3-3------- 3 times followed by

--------------------------------
--------------------------------
--------------------------------
--5-5-5-0-0-0-7-7-7-3-3-3-9-9-9-

Then back into the first riff but
with D hanging on the end on the end and a
bit of a slide in the middle between
A and C# hanging on B	Then riff 2 again

Then there comes this part which I'm not so
sure about but will try anyways.
Don't beleive this to be accurate as I am no
musician, but the above I think
I nailed. Somewhat.


----------------------
--2-2--2-2-------3-3--
------------3-3-------
---------------------- played 4 times followed
			 by Riff 1 but played
			with a basier (lower) E.

Then this riff with various suttle changes

-------------------------------------------------------------
-------------------------------------------------------------
-------------------------------------------------------------
5--5-5--5--5-5--5--5-5--5^7-7-7-7^9-9--9--9--9--9--9--9--9--9

Ending With this

-------------------------------------------------------------
-------------------------------------------------------------
-------------------------------------------------------------
5--5-5--5--5-5--5--5-5--5^7-7-7-7^9-9--9--9--9--9--9--9--9--9^10-10-10