´╗┐ 0-9 | 28 days | whats the deal tab online player | |


  
#-----------------------------PLEASE NOTE-------------------------------------#
#This OLGA file is the author's own work and represents their interpretation  #
#of the song. You may only use this file for private study, scholarship, or   #
#research. Remember to view this file in Courier, or some other monospaced    #
#font. See http://www.olga.net/faq/ for more information.                     #
#-----------------------------------------------------------------------------#

Date: Mon, 09 Dec 2002 18:10:41 +1100
From: John Ellerbock 
Subject: 2/28_days/whats_the_deal.tab


Band: 28 Days
Song: Whats The Deal
Album: Stealing Chairs (2002)



INTRO
'the beer is ice..
    e|-----------------------------------------|
    B|-----------------------------------------|
    G|------------------0----------------------|
    D|------------2---2---2-3-3-2-2h3-3-3p2----|
    A|----------3---3-----------------------3--|
    E|-----------------------------------------|


    VERSE
   (With Wah pedal)
    e|---------------------------------|
    B|---------------------------------|
    G|---------------------------------|
    D|---------------------------------|
    A|-3-3-3-3-3-3-3-3-3-3-3-3/5-5-5\3-|
    E|---------------------------------|

    PRE-CHORUS
    e|---------------------------------|
    B|---------------------------------|
    G|---------------------------------|
    D|---------------------------------|
    A|-12\-----------------------------|
    E|---------------------------------|
..good

CHORUS
                                               1st    2nd
e|--------------------------------------------|X-X-X|-------|
B|--------------------------------------------|X-X-X|-------|
G|--------------------------------------------|X-X-X|-------|
D|-5-5-5-------7-7-7-3-2-----5-5-5-------7-7-7|X-X-X|-------|
A|-3-3-3-5-5-5-5-5-5-----5-3-3-3-3-5-5-5-5-5-5|X-X-X|0-2-3-2|
E|-------3-3-3---------------------3-3-3------|X-X-X|-------| X2

  EXTRA CHORUS            OVERDUBBED WITH THIS

e|------------------------|       e|---0---0-3-0-1-1-0-0-1p0h1p0h1p0--|
B|------------------------|       B|-1---1---------------------------1|
G|------------------------|       G|----------------------------------|
D|-5-5-5-------------7-7-7|       D|----------------------------------|
A|-3-3-3-5-5-5-3-3-3-5-5-5|       A|----------------------------------|
E|-------3-3-3-1-1-1------|       E|----------------------------------|

ORDER
INTRO x4
VERSE x4
PRECHORUS
CHORUS
INTRO x4
VERSE x4
PRECHORUS
CHORUS
EXTRA CHORUS + OVER DUB x2
INTRO x2
VERSE x4
PRECHORUS
CHORUS
EXTRA CHORUS + OVER DUB x2
OUTRO - OVER DUB x1 (gradually slowing down)