0-9 | 28 days | rise above crd online player | |


  
#-----------------------------PLEASE NOTE-------------------------------------#
#This OLGA file is the author's own work and represents their interpretation  #
#of the song. You may only use this file for private study, scholarship, or   #
#research. Remember to view this file in Courier, or some other monospaced    #
#font. See http://www.olga.net/faq/ for more information.                     #
#-----------------------------------------------------------------------------#

Date: Sat, 26 Oct 2002 22:17:57 +1000
From: Odd Man Out 
Subject: 2/28_days/rise_above.crd

Artist: 28day

Song: Rise Above
Tabbed By T. Dacosta
nails_66@hotmail.com

 Tuning: E

 Legend:
 x - strike string
 / - slide up
 \ - slide down


 INTRO:
 E|---------------------------
 B|---------------------------
 G|---------4-xx-5-xx-7-xx-5-- x1
 D|--2------4-xx-5-xx-7-xx-5--
 A|--2------2-xx-3-xx-5-xx-3--
 E|--0------------------------


 VERSE:

E|--------------------------------------------------------------------
B|--------------------------------------------------------------------
G|--9-999--5-555--121212--1111-11/12\11--99999--55--4-xx-5-xx-7-xx-5-- x2
D|--9-999--5-555--121212--1111-11/12\11--99999--55--4-xx-5-xx-7-xx-5--
A|--7-777--3-333--101010---9-9--9/10\-9--77777--33--2-xx-3-xx-5-xx-3--
E|--------------------------------------------------------------------


 CHORUS:
 E|---------------------------
 B|---------------------------
 G|--44444-66666-55555-77777-- x2
 D|--55555-77777-55555-77777--
 A|--55555-77777-33333-55555--
 E|--33333-55555--------------


 2ND VERSE:
 Same as verse except let power chord ring out (watch timing)
 on 0-7-9-9-0-0, then continue with verse.


 2ND CHORUS:
 Play chorus riff twice then repeatedly play chord 0-10-12-12-0-0
 until bridge.


 BRIDGE: (follow timing)
 E|---------------------
 B|---------------------
 G|--9--4--6--8---9--7-- x4
 D|--9--5--7--9--10--7--
 A|--7--5--7--9--10--5--
 E|-----3--5--7---8-----


 ENDING:
 E|------------------------------------------------------------
 B|------------------------------------------------------------
 G|--99999-12\11-9-99999-12\11-9-99999-12\11-9-99999--6--9-77-- x2
 D|--99999-12\11-9-99999-12\11-9-99999-12\11-9-99999--9-10-77--
 A|--77777-10\-9-7-77777-10\-9-7-77777-10\-9-7-77777--9-10-55--